Cifra Club

Aprenda

Desentoa

Cachorro Grande

Cifra: Principal (violão e guitarra)
Já pensou em usar uma coleção de roupas do Cifra Club? Responda as perguntas abaixo e nos ajude nessa missão! →
tom: G
Intro : Em C

Em                     C
Eu nunca sento do seu lado
Em                    C
Eu não agüento o seu papo
Em                  C
Você não parece comigo
Em                 C
E nem parece meu amigo

Em        C               A/C#
Às vezes finjo não ouvir
C
Você falando
Em        C
Às vezes tenho que fugir, 
C#°      C
Vou pra outro lado

e|-------------------------------------------------------------    
B|-------------------------------------------------------------    
G|-------------------------------------------------------------    
D|-----------------------7-7-----------------------------------
A|-7-7-9-9-10-10-9-9-7-7-----10-10-9-9-------------------------
E|-------------------------------------8-8-(0)-8-8-(0)-8-8----- 2 vezes

Em                 C  
Você entende tudo errado
Em                   C
E não escuta o que eu falo
Em               C
Até parece estressado
Em                   C
Isso me deixa incomodado 

Em        C
Às vezes finjo não ouvir
C#°    C
Você falando
Em        C
Às vezes tenho que fugir, 
C#°      C
Vou pra outro lado

e|-------------------------------------------------------------    
B|-------------------------------------------------------------    
G|-------------------------------------------------------------    
D|-----------------------7-7-----------------------------------
A|-7-7-9-9-10-10-9-9-7-7-----10-10-9-9-------------------------
E|-------------------------------------8-8-(0)-8-8-(0)-8-8----- 2 vezes

Em        C
Às vezes finjo não ouvir
C#°    C
Você falando
Em        C
Às vezes tenho que fugir, 
C#°      C
Vou pra outro lado

Solos no final da música:

e|---------------------------------------------------------
B|---------------------------------------------------------
G|---------------------------------------------------------
D|---------------------------------------------------------   e vai abaixando
A|-7-5-3-2-0---------------0-2-3-7-3-3--3-3-3--3-3-3--3-3-3
E|-----------3-2-0-0-0-2-3---------------------------------
Composição de Beto Bruno / Gabriel Azambuja
37.728 exibições
    • ½ Tom
    • A
    • Bb
    • B
    • C
    • Db
    • D
    • Eb
    • E
    • F
    • F#
    • G
    • Ab
  • Adicionar à lista

    0 comentários

    Ver todos os comentários
    00:00 / 00:00
    Outros vídeos desta música
    Repetir Qualidade Automático
    Outros vídeos desta música
    00:00 / 00:00
    Automático

    Cifra Club Pro

    Aproveite o Cifra Club com benefícios exclusivos e sem anúncios
    Cifra Club Pro
    Aproveite o Cifra Club com benefícios exclusivos e sem anúncios
    OK