Cifra Club

Sinceramente

Cachorro Grande

Cifra: Principal (violão e guitarra)
exibições 265.936
Tom: F
Dm                Gm7
Sinceramente você pode se abrir comigo
Dm                 Gm7
Honestamente eu só quero te dizer
       F     C    Gm7
Que eu acertei o pulo quando te encontrei
F     C     Gm7
Eu acertei

Dm               Gm7
Eu sei a palavra que você deseja escutar
Dm               Gm7
Você é o segredo que eu vou desvendar
          F  C  Gm7
Você acertou o pulo quando me encontrou
    F C    Gm7
acertou o pulo quando me encontrou
A#
Então o nosso mundo girou
F   Am  Dm       C    G
 Você ficou e a noite veio
        Bb          F
Nos trazer a escuridão
   Am    Dm
 E aí então
      C          G
Eu abri meu coração
        Bb  Bbm    F
Por que nada é em vão

Dm               Gm7
Eu sei a palavra que você deseja escutar
Dm               Gm7
Você é o segredo que eu vou desvendar
          F  C  Gm7
Você acertou o pulo quando me encontrou
    F C    Gm7
acertou o pulo quando me encontrou
A#                     F
Então o nosso mundo girou
F   Am  Dm      C     G
 Você ficou e a noite veio
        Bb        F
Nos trazer a escuridão
   Am    Dm
 E aí então
      C         G
Eu abri meu coração
        Bb   Bbm   F
Por que nada é em vão

[Solo]

E|-----------------------------------------------------------------------------------|
B|-------------------------------------6p5------8/10\8-6/8\6p0-----------------------|
G|------------------------7/5-5/7--7-5-----5/7-----------------7-7—--5-7-------------|
D|-----------------------------------------------------------------------5/7-5-------|
A|--------3--5p3------3/5------------------------------------------------------------|
E|-1-3/5-----------5-----------------------------------------------------------------|

E|------------------------------------------------------------------------------|
B|-8/10\8-6/8\6p-----6-----------------8/10\8-6/8\6p0---6---------8/10-8--------|
G|-----------------7---7/5--7—-10/7-------------------7---7/5--7----------------|
D|------------------------------------------------------------------------------|
A|------------------------------------------------------------------------------|
E|------------------------------------------------------------------------------|

Bb            Am              Dm
Gostei do seu charme e do seu groove
Bb        Am          C       G
Gostei do jeito como rola com você
Bb        Am                 Dm
Gostei do seu papo e do seu perfume
Bb         Am          C         G
Gostei do jeito como eu rolo com você

Dm                Gm7
Sinceramente você pode se abrir comigo
Dm                 Gm7
Honestamente eu só quero te dizer
      F  C        Gm7
Que acertei meu pulo quando te encontrei
F     C     Gm7
Eu acertei

A#                     F
Então o nosso mundo girou
F  Am   Dm       C    G
 Você ficou e a noite veio
        Bb          F
Nos trazer a escuridão
F  Am   Dm
 E aí então
      C         G
Eu abri meu coração
        Bb   Bbm  F
Por que nada é em vão

[Final] Dm

0 comentários

    mostrar mais comentários

    Conseguiu tocar?

    40tocaram0ainda não

    Grave um vídeo tocando Sinceramente e mande pra gente!

    00:00 / 00:00
    outros vídeos desta música
    repetirqualidadeAutomático
    Outro vídeos desta música
      00:00 / 00:00
      OK