Cifra Club

Halo

Cage The Elephant

Cifra: Principal (violão e guitarra)
tom: Bb
         Bb                       D     C
|-----------------------------------------------------|
|-----------------------------------------------------|
|---------------------------------7-----5-------------|
|--------8------------------------7-----5-------------|
|--------8------5/10---8--5--3--5-5---3-3-------------|
|-----6--6--------------------------------------------|

|------------------------------------------------------|
|------------------------------------------------------|
|---------------------------------7--------------------|
|--------8------------------------7--------------------|
|--------8------5/10---8--5--3--5-5----5/10---8--5--3--|
|-----6--6---------------------------------------------|

( Bb G ) (2x)

 Bb
Every time I get away you
 G                        Bb     G
find a way to reel me back in. (aah)
 Bb
Tell me that you love me
        G                          Bb        G
hold me tight so we can always be friends. (aah)
Bb
I swear
              G                    Bb      G
I've said it before, and I say it again! (aah)
Bb
Every time I get away you
       G                  Bb     G
find a way to pull me back in. (aah)

Eb         D        C
Why does it take so long?
Eb         D        C
Why does it feel so wrong?
Eb         D        C
Why does it take so lo-oo-ong?

Bb      D
Knew I, couldn't help myself
Bb       D   C
I had to lay low.
Bb     D
So I, couldn't help myself
Bb        D   C
I lost my halo.

Bb
Take me by the hand and
      G                              Bb     G
still remember all the good times we had. (aah)
Bb                                   G
I remember how you took my favourite knife
                     Bb      G
and sticked under my skin. (aah)
Bb
I swear
              G                    Bb      G
I've said it before, and I say it again! (aah)
Bb
Every time I get away you
       G                 Bb       G
find a way back under my skin.

Eb         D        C
Why does it take so long?
Eb         D        C
Why does it feel so wrong?


Bb      D
Knew I, couldn't help myself
Bb       D   C
I had to lay low.
Bb     D
So I, couldn't help myself
Bb        D   C
I lost my halo.

Bb
All my life
D
With a skeleton.
A        D   C
I had to let go.

Bb    D
So I, couldn't help myself
Bb        D  C
I lost my halo. x3
Compositor não encontrado.
Colaboração e revisão:
  • Miguel Ferreira
2.926 exibições
    • ½ Tom
    • A
    • Bb
    • B
    • C
    • Db
    • D
    • Eb
    • E
    • F
    • F#
    • G
    • Ab
  • Adicionar à lista

    0 comentários

    Ver todos os comentários
    00:00 / 00:00
    Outros vídeos desta música
    Repetir Qualidade Automático
    Outros vídeos desta música
    00:00 / 00:00
    Automático

    Cifra Club Pro

    Aproveite o Cifra Club com benefícios exclusivos e sem anúncios
    Cifra Club Pro
    Aproveite o Cifra Club com benefícios exclusivos e sem anúncios
    OK