Cifra Club

Aprenda

Shake Me Down

Cage The Elephant

Cifra: Principal (violão e guitarra)
tom: A
Intro 4x: A  C#m
      F           Am        F       Am
E|-------------------------------------------
B|---------5-----------5-------5-------5-----
G|------6-----0-----6----0---6---0---6---0---
D|---7-----------6---------7-------6---------
A|-------------------------------------------
E|-------------------------------------------
     Shake me down   Not alot of people left around
                 F           Am        F       Am
E|-------------------------------------------
B|---------5-----------5-------5-------5-----
G|------6-----0-----6----0---6---0---6---0---
D|---7-----------6---------7-------6---------
A|-------------------------------------------
E|-------------------------------------------
         Who know's now      
               F           Am        F       Am
E|-------------------------------------------
B|---------5-----------5-------5-------5-----
G|------6-----0-----6----0---6---0---6---0---
D|---7-----------6---------7-------6---------
A|-------------------------------------------
E|-------------------------------------------
    Softly laying on the ground oh  oohh   
               F           Am        F       Am
E|-------------------------------------------
B|---------5-----------5-------5-------5-----
G|------6-----0-----6----0---6---0---6---0---
D|---7-----------6---------7-------6---------
A|-------------------------------------------
E|-------------------------------------------
Not alot of people left around oh  oohh  oh  oohh

A       C#m         F#m
  In my life I have seen
       Bm             A
People walking to the seat
        C#m      F#m
Just to find memory
            Bm          A
Plagued my constant misery
      C#m       F#m
Their eyes cast down
Bm             A
Fixed upon the ground
      C#m       F#m Bm
Their eyes cast down

Refrão:
E
  I'll keep my eyes
             A  C#m A C#m
fixed on the sun

A          C#m
  Shake me down
A        C#m
  Cut my hair on
         A
a silver cloud
   C#m
Broken sound
A        C#m
  Softly laying on the
A      C#m
ground oh  oohh
A             C#m
  Not alot of people left
 A     C#m    A   C#m
around oh  oohh oh  oohh

A       C#m         F#m
  In my past bitter sweet
         Bm               A
Found no love between the sheets
         C#m          F#m
Take the blood broken dreams
Bm             A
Lonely times indeed
     C#m       F#m
With eyes cast down
Bm             A
Fixed upon the ground
     C#m       F#m Bm
With eyes cast down

Refrão:
E
  I'll keep my eyes
             A   G E
fixed on the sun
E
  Turn back no it's
                     A  G E
time for me to let go
E
  Way down had to
                       A  G E
find a place to lay low
E
  Lamp shade turning
right into a lamp post

( F#m C#m  E/G#  A C#m  E/G#  A C#m  E/G#  F#m ) (4x)

E               F#m
Walk around the corner
A
Never saw it coming still
  E             F#m
I try to make a move
           A
It almost stopped me from belief
        E              F#m
I don't wanna know the future
A
I'm like rolling thunder
D                A
Even on a cloudy day
E                F#m
Even on a cloudy day
D                A
Even on a cloudy day
E                F#m
Even on a cloudy day
D                A
Even on a cloudy day
E                F#m
Even on a cloudy day
D                A
Even on a cloudy day

E
  I'll keep my eyes fixed on the
I'll keep my eyes fixed on the
                               A C#m  (4x)
I'll keep my eyes fixed on the sun

A          C#m
  Shake me down
A              C#m
  Not a lot of people
      A
left around
C#m   A C#m   A
oh  ooh  oh  oo
Composição de Cage the Elephant
Colaboração e revisão:
  • Mario Perez
  • Gustavo
27.350 exibições
    • ½ Tom
    • A
    • Bb
    • B
    • C
    • Db
    • D
    • Eb
    • E
    • F
    • F#
    • G
    • Ab
  • Adicionar à lista

    0 comentários

    Ver todos os comentários

    Conseguiu tocar?

    12 Tocaram 2 Ainda não

    Grave um vídeo tocando Shake Me Down e nos envie!

    00:00 / 00:00
    Outros vídeos desta música
    Repetir Qualidade Automático
    Outros vídeos desta música
    00:00 / 00:00
    Automático

    Cifra Club Pro

    Aproveite o Cifra Club com benefícios exclusivos e sem anúncios
    Cifra Club Pro
    Aproveite o Cifra Club com benefícios exclusivos e sem anúncios
    OK