Cifra Club

I Will Survive

Cake

Cifra: Principal (violão e guitarra)
Tom: C
[Intro] Am  Dm  G  C  F  B  E

       Am
At first I was afraid
           Dm
I was petrified
                     G7
I kept thinking I could never live
               C
Without you by my side.
              F
But then I spent so many nights
                  B
Just thinking how you'd done me wrong
          E
I grew strong.
           E7
I learned how to get along
                Am               Dm
And so you're back from outer space
          G7
I just walked in to find you here
                C
Without that look upon your face
                 F
I should have changed my fucking lock
                B
I would have made you leave your key
                E
If I'd have known for just one second
          E7
You'd be back to bother me

        Am
Oh now go
               Dm
Walk out the door
                G7
Just turn around now
                C
You're not welcome anymore
     F7
Weren't you the one
                B
Who tried to break me with desire?
                       E
Did you think I'd crumble?
Did you think I'd lay down and die?
     Am
Oh not I
            Dm
I will survive
                  G7
As long as I know how to love
                  C
I know I'll be alive
            F
I've got all my life to live
            B
I've got all my love to give
            E
I will survive
            E7
I will survive

      Am
It took all the strength I had
               Dm
Just not to fall apart.
              G7
I'm trying hard to mend
                    C
The pieces of my broken heart
          F
And I spent oh so many nights
                B
Just feeling sorry for myself
     E
I used to cry
           E7
But now I hold my head up high
      Am                         Dm
And you'll see me with somebody new
                G7
I'm not that stupid little person
           C
Still in love with you.
      F
And so you thought you'd just drop by
                         B
And you expect me to be free
       E
But now I'm saving all my lovin
       E7
For someone who's lovin' me

[Solo]

E|-5-------------------------------------------------------------|
B|-8^10--8^10^8-5------------------------------------------------|
G|----------------7--7^10^7-5---5-7777777---5-7-5--4-7-4-7-4~-4--|
D|----------------------------7-----------7----------------------|
A|---------------------------------------------------------------|
E|---------------------------------------------------------------|

E|---------------------------------------------------------------|
B|---------------------------------------------------------------|
G|--------------------------------------5---5-7-7^8^7-5---5-7-7^9|
D|-----5-7~~-5---5-7-5--7-5---5-5-6---7---7-------------7--------|
A|-5h7---------7------------7------------------------------------|
E|---------------------------------------------------------------|

E|-------------7-------------------------------------------------|
B|---5-7-5-7^8-----7^8^7-5-7---5-7---5-7-5-----------------------|
G|-7-------------------------6-----6-----------------------------|
D|---------------------------------------------------------------|
A|---------------------------------------------------------------|
E|---------------------------------------------------------------|

E|---8---7--------------------7---5------------------------------|
B|-5---5---5/8-10-7-5-8-7~--3---3---3/7-8-5-3-7-5-55555----------|
G|---------------------------------------------------------------|
D|---------------------------------------------------------------|
A|---------------------------------------------------------------|
E|---------------------------------------------------------------|

E|---5-----------------------------------------------------------|
B|-------8---------------------------------------99999-9-10-12---|
G|-5---5---5/9-10-7-5-9-8~--999-9^10-9-9-11-9--9-----------------|
D|---------------------------------------------------------------|
A|---------------------------------------------------------------|
E|---------------------------------------------------------------|
exibições 211.644
Acordes para:

    0 comentários

    mostrar mais comentários

    Conseguiu tocar?

    21 tocaram 0 ainda não

    Grave um vídeo tocando I Will Survive e mande pra gente!

    00:00 / 00:00
    outros vídeos desta música
    repetir qualidade Automático
    Outros vídeos desta música
    00:00 / 00:00
    Automático
    OK