Cifra Club

Agora Estou Sofrendo (part. Gusttavo Lima)

Calcinha Preta

Cifra: Principal (violão e guitarra)
tom: Am
[Tab - Solo Intro]

Parte 1 de 2
E|----------------------------------------------------|
B|--11-10-------------------------10------------------|
G|--------12-10-8-7-7-5-7-12-10-12--------------------|
D|----------------------------------------------------|
A|----------------------------------------------------|
E|----------------------------------------------------|

Parte 2 de 2
E|----------------------------------------------------|
B|--11-10---------------------------------------------|
G|--------12-10-8-7-7-5-7-12-10-12-11-10--------------|
D|----------------------------------------------------|
A|----------------------------------------------------|
E|----------------------------------------------------|

F9
   Não há amor para mim não
Dm
   Você estava mentindo
F9                       Am
   Diga logo que não me amou
     C             F9         G            Am
Que não gostou de mim, não sente amor por mim

F9
   Quais as armas que encontra ?
Dm
   Pra fazer seus encantos
F9                      Am
   Derramar seu amor em mim
     C             F9        G
Mas não gostou de mim, não sente amor

C             Dm
Me fere, me risca de amor
Am
   Me foge, não me alimenta
F9          C         Bb
   Não sabe que já me conquistou
  G
Agora estou sofrendo
C             Dm
Me fere, me risca de amor
Am
   Me foge, não me alimenta
F9        C         Bb
Não sabe que já me conquistou
  G                  F9  Dm
Agora estou sofrendo

F9
   Não há amor para mim não
Dm
   Você estava mentindo
F9                       Am
   Diga logo que não me amou
     C             F9
Que não gostou de mim

F9
   Quais as armas que encontra?
Dm
   Pra fazer seus encantos
F9                      Am
   Derramar seu amor em mim
     C             F9        G
Mas não gostou de mim, não sente amor

[Tab - Solo Final]

Parte 1 de 3
E|----------------------------------------------------|
B|--11-10-------------------------10------------------|
G|--------12-10-8-7-7-5-7-12-10-12--------------------|
D|----------------------------------------------------|
A|----------------------------------------------------|
E|----------------------------------------------------|

Parte 2 de 3
E|----------------------------------------------------|
B|--11-10---------------------------------------------|
G|--------12-10-8-7-7-5-7-12-10-12-11-10--------------|
D|----------------------------------------------------|
A|----------------------------------------------------|
E|----------------------------------------------------|

Parte 3 de 3
E|--19-18--------------19-----------------------------|
B|--------19-19----16---------------------------------|
G|----------------------------------------------------|
D|----------------------------------------------------|
A|----------------------------------------------------|
E|----------------------------------------------------|
00:00 / 00:00
Outros vídeos desta música
Repetir
Outros vídeos desta música
Composição de Edu Falaschi / Gilton Andrade / Kiko Loureiro / Rafael Bitencourt
Colaboração e revisão:
  • MarcosERaffael
9.351 exibições
    • ½ Tom
    • Am
    • Bbm
    • Bm
    • Cm
    • C#m
    • Dm
    • Ebm
    • Em
    • Fm
    • F#m
    • Gm
    • G#m
  • Adicionar à lista

    0 comentários

    Ver todos os comentários

    Entre para oCifra Club PRO

    Tenha acesso a benefícios exclusivos no App e no Site

    • Chega de anúncios

    • Prioridade de compra em lançamentos

    • Mais recursos no app do Afinador

    • Atendimento Prioritário

    • Descontos nos produtos Cifra Club

    • Ajude a produzir mais conteúdo

    00:00 / 00:00

    Cifra Club Pro

    Aproveite o Cifra Club com benefícios exclusivos e sem anúncios
    Cifra Club Pro
    Aproveite o Cifra Club com benefícios exclusivos e sem anúncios
    OK