Cifra Club

Aprenda

Dancing On My Own

Calum Scott

Cifra: Principal (violão e guitarra)
tom: Db (forma dos acordes no tom de C) Capotraste na 1ª casa
[Intro]

      C
E|---------------------------------------------------------|
B|---------------------------------------------------------|
G|--0----0----0----0---------------------------------------|
D|---------------------------------------------------------|
A|-3-------------------------------------------------------|
E|---------------------------------------------------------|

      C
E|---------------------------------------------------------|
B|---------------------------------------------------------|
G|--0----0----0----0---------------------------------------|
D|---------------------------------------------------------|
A|-3-------------------------------------------------------|
E|---------------------------------------------------------|


[Primeira Parte]
   
    C              G            F
E|---------------------------------------------------------|
B|---------------------------------------------------------|
G|---0--0---0--0---0--0---0--0---2--0---0--0---0--0---0--0-|
D|---------------------------------------------------------|
A|-3------3------------------------------------------------|
E|---------------3------3------1------1------1------1------|

C        G                   F
Somebody said you got a new friend
C        G                     F
Does she love you better than I can?
C         G                    F 
There's a big black sky over my town
C          G                   F
I know where you're at, I bet she's around

[Pré-Refrão]

     Am     G      F      F      G
E|---------------------------------------------------------|
B|--1------3------1------1------3--------------------------|
G|--2------0------2------2------0--------------------------|
D|--2------0------3------3------0--------------------------|
A|--0------2------3------3------2--------------------------|
E|---------3--------------------3--------------------------|

Am             G            F
Stilettos and broken bottles
F                G
I'm spinning around in circles

[Refrão]

    C              G            F                    G
E|---------------------------------------------------------|
B|---1--1---1--1---3--3---3--3---1--1---1--1---1--1---3--3-|
G|---0--0---0--0---0--0---0--0---2--2---2--2---2--2---0--0-|
D|---2--2---2--2---0--0---0--0---3--3---3--3---3--3---0--0-|
A|-3------3--------------------3------3------3-------------|
E|---------------3------3---------------------------3------|

    C              G            F                    G
E|---------------------------------------------------------|
B|---1--1---1--1---3--3---3--3---1--1---1--1---1--1---3--3-|
G|---0--0---0--0---0--0---0--0---2--2---2--2---2--2---0--0-|
D|---2--2---2--2---0--0---0--0---3--3---3--3---3--3---0--0-|
A|-3------3--------------------3------3------3-------------|
E|---------------3------3---------------------------3------|

C           G                  F                   G    
I'm in the corner, watching you kiss her, oh,oh,oh
C              G                   F                G   
I'm right over here, why can't you see me, oh,oh,oh

    Am              G            F
E|---------------------------------------------------------|
B|---1--1---1--1---3--3---3--3---1--1---1--1---1--1---1--1-|
G|---2--2---2--2---0--0---0--0---2--2---2--2---2--2---2--2-|
D|---2--2---2--2---0--0---0--0---3--3---3--3---3--3---3--3-|
A|-0------0--------------------3------3------3------3------|
E|---------------3------3----------------------------------|

    Am              G            F
E|---------------------------------------------------------|
B|---1--1---1--1---3--3---3--3---1--1---1--1---1--1---1--1-|
G|---2--2---2--2---0--0---0--0---2--2---2--2---2--2---2--2-|
D|---2--2---2--2---0--0---0--0---3--3---3--3---3--3---3--3-|
A|-0------0--------------------3------3------3------3------|
E|---------------3------3----------------------------------|

Am               G                  F
I'm giving it my all, but I'm not the guy you're taking home, ooo
C      G            F
I keep dancing on my own

[Segunda Parte]

    C              G            F
E|---------------------------------------------------------|
B|---------------------------------------------------------|
G|---0--0---0--0---0--0---0--0---2--0---0--0---0--0---0--0-|
D|---------------------------------------------------------|
A|-3------3------------------------------------------------|
E|---------------3------3------1------1------1------1------|

C              G        F
I just gonna dance all night
C              G                 F
I'm all messed up, I'm so out of line

     Am     G      F      F      G
E|---------------------------------------------------------|
B|--1------3------1------1------3--------------------------|
G|--2------0------2------2------0--------------------------|
D|--2------0------3------3------0--------------------------|
A|--0------2------3------3------2--------------------------|
E|---------3--------------------3--------------------------|

Am        G           F
Yeah, I know it's stupid
F                            G
I just gotta see it for myself

[Refrão]

    C              G            F                    G
E|---------------------------------------------------------|
B|---1--1---1--1---3--3---3--3---1--1---1--1---1--1---3--3-|
G|---0--0---0--0---0--0---0--0---2--2---2--2---2--2---0--0-|
D|---2--2---2--2---0--0---0--0---3--3---3--3---3--3---0--0-|
A|-3------3--------------------3------3------3-------------|
E|---------------3------3---------------------------3------|

    C              G            F                    G
E|---------------------------------------------------------|
B|---1--1---1--1---3--3---3--3---1--1---1--1---1--1---3--3-|
G|---0--0---0--0---0--0---0--0---2--2---2--2---2--2---0--0-|
D|---2--2---2--2---0--0---0--0---3--3---3--3---3--3---0--0-|
A|-3------3--------------------3------3------3-------------|
E|---------------3------3---------------------------3------|

C           G                   F                 G   
I'm in the corner, watching you kiss her, oh,oh,oh
C              G                   F               G 
I'm right over here, why can't you see me, oh,oh,oh

    Am              G            F
E|---------------------------------------------------------|
B|---1--1---1--1---3--3---3--3---1--1---1--1---1--1---1--1-|
G|---2--2---2--2---0--0---0--0---2--2---2--2---2--2---2--2-|
D|---2--2---2--2---0--0---0--0---3--3---3--3---3--3---3--3-|
A|-0------0--------------------3------3------3------3------|
E|---------------3------3----------------------------------|

    Am              G            F
E|---------------------------------------------------------|
B|---1--1---1--1---3--3---3--3---1--1---1--1---1--1---1--1-|
G|---2--2---2--2---0--0---0--0---2--2---2--2---2--2---2--2-|
D|---2--2---2--2---0--0---0--0---3--3---3--3---3--3---3--3-|
A|-0------0--------------------3------3------3------3------|
E|---------------3------3----------------------------------|

Am               G                  F                           
I'm giving it my all, but I'm not the guy you're taking home, ooo
C        G         F
I keep dancing on my own

( C   F )

[Ponte]

      F      G      Am     G      F
E|---------------------------------------------------------|
B|---1------3------1------3------1-------------------------|
G|---2------0------2------0------2-------------------------|
D|---3------0------2------0------3-------------------------|
A|---3------2------0------2------3-------------------------|
E|----------3-------------3--------------------------------|

F      G                    Am
So far away but still so near
                G             F
The lights come on, the music dies

      G      Am     Am     C
E|---------------------------------------------------------|
B|---3------1------3------3--------------------------------|
G|---0------2------0------2--------------------------------|
D|---0------2------0------0--------------------------------|
A|---2------0------2------1--------------------------------|
E|---3-------------3---------------------------------------|

               G               Am
But you don't see me standing here
         G                C
I just came to say goodbye

[Refrão]

    C              G            F                    G
E|---------------------------------------------------------|
B|---1--1---1--1---3--3---3--3---1--1---1--1---1--1---3--3-|
G|---0--0---0--0---0--0---0--0---2--2---2--2---2--2---0--0-|
D|---2--2---2--2---0--0---0--0---3--3---3--3---3--3---0--0-|
A|-3------3--------------------3------3------3-------------|
E|---------------3------3---------------------------3------|

    C              G            F                    G
E|---------------------------------------------------------|
B|---1--1---1--1---3--3---3--3---1--1---1--1---1--1---3--3-|
G|---0--0---0--0---0--0---0--0---2--2---2--2---2--2---0--0-|
D|---2--2---2--2---0--0---0--0---3--3---3--3---3--3---0--0-|
A|-3------3--------------------3------3------3-------------|
E|---------------3------3---------------------------3------|

C           G                  F                  G 
I'm in the corner, watching you kiss her, oh,oh,oh
C              G                   F               G
I'm right over here, why can't you see me, oh,oh,oh

    Am              G            F
E|---------------------------------------------------------|
B|---1--1---1--1---3--3---3--3---1--1---1--1---1--1---1--1-|
G|---2--2---2--2---0--0---0--0---2--2---2--2---2--2---2--2-|
D|---------------------------------------------------------|
A|-0------0--------------------3------3------3------3------|
E|---------------3------3----------------------------------|

    Am              G            F
E|---------------------------------------------------------|
B|---1--1---1--1---3--3---3--3---1--1---1--1---1--1---1--1-|
G|---2--2---2--2---0--0---0--0---2--2---2--2---2--2---2--2-|
D|---------------------------------------------------------|
A|-0------0--------------------3------3------3------3------|
E|---------------3------3----------------------------------|

Am               G                  F                           
I'm giving it my all, but I'm not the guy you're taking home, ooo
Am        G         F
I keep dancing on my own

[Refrão]

C           G                  F                  G
I'm in the corner, watching you kiss her, oh,oh,oh
C              G                   F               G
I'm right over here, why can't you see me, oh,oh,oh
Am               G                  F                           G
I'm giving it my all, but I'm not the guy you're taking home, ooo
Am        G         F
I keep dancing on my own

[Ponte]

F          G            Am
So far away but still so near
                G             F
The lights come on, the music dies
               G               Am
But you don't see me standing here
Composição de Patrik Jens Berger / Robin Miriam Carlsson
198.973 exibições
  • Simplificar cifra
    • ½ Tom
    • A
    • Bb
    • B
    • C
    • Db
    • D
    • Eb
    • E
    • F
    • F#
    • G
    • Ab
  • Adicionar à lista

    0 comentários

    Ver todos os comentários

    Conseguiu tocar?

    27 Tocaram 14 Ainda não

    Grave um vídeo tocando Dancing On My Own e nos envie!

    00:00 / 00:00
    Outros vídeos desta música
    Repetir Qualidade Automático
    Outros vídeos desta música
    00:00 / 00:00
    Automático

    Cifra Club Pro

    Aproveite o Cifra Club com benefícios exclusivos e sem anúncios
    Cifra Club Pro
    Aproveite o Cifra Club com benefícios exclusivos e sem anúncios
    OK