Enviar cifraEntrar

Feel So Close

Calvin Harris

Cifra: Principal
exibições 125.776
Tom: C
Am           Em                G                     C
 I feel so close to you right now it's a force field
Am           Em             G                    C
 I wear my heart upon my sleeve, like a big deal
Am                 Em             G                        C
 Your love pours down on me, surrounds me like a waterfall
Am                 Em               G
 And there's no stopping us right now

            C
I feel so close to you right now

(Guitarra Riff):


E|------8-8-8-8---7-7-7-7----7-7-7-7-----------------------------|
B|-----8-8-8-8---8-8-8-8----5-5-5-5-----8-8-8-8------------------|
G|-------------------------------------5-5-5-5-------------------|
D|---------------------------------------------------------------|
A|---------------------------------------------------------------|
E|---------------------------------------------------------------| x6


Am           Em                G                     C
 I feel so close to you right now it's a force field
Am           Em             G                    C
 I wear my heart upon my sleeve, like a big deal
Am                 Em             G                        C
 Your love pours down on me, surrounds me like a waterfall
Am                 Em               G
 And there's no stopping us right now

            C
I feel so close to you right now

(Guitar Riff):


E|------8-8-8-8---7-7-7-7----7-7-7-7-----------------------------|
B|-----8-8-8-8---8-8-8-8----5-5-5-5-----8-8-8-8------------------|
G|-------------------------------------5-5-5-5-------------------|
D|---------------------------------------------------------------|
A|---------------------------------------------------------------|
E|---------------------------------------------------------------| x6



Am                 Em               G  C
 And there's no stopping us right now
Am                 Em               G  C
 And there's no stopping us right now
Am                 Em               G  C
 And there's no stopping us right now

           Am
I feel so close to you right now

(Guitar Riff):


E|------8-8-8-8---7-7-7-7----7-7-7-7-----------------------------|
B|-----8-8-8-8---8-8-8-8----5-5-5-5-----8-8-8-8------------------|
G|-------------------------------------5-5-5-5-------------------|
D|---------------------------------------------------------------|
A|---------------------------------------------------------------|
E|---------------------------------------------------------------| x4
  • 1
  • 2
  • 3
  • 4
  • 5
  • 6
  • 7
  • 8
  • 9
  • 10
  • 11
  • 12
    Acordes para:
      Composição: Calvin HarrisColaboração e revisão:

      0 comentários

        mostrar mais comentários

        Conseguiu tocar?

        58tocaram1ainda não

        Grave um vídeo tocando Feel So Close e mande pra gente!

        00:00 / 00:00
        outros vídeos desta música
        repetirqualidadeautomática
        • automática
        Outro vídeos desta música
          00:00 / 00:00
          automática
          • automática
          Acordes para:violão e guitarra
          dificuldadeexibiçõescontribuições
          1 versão de Tab de baixoexibiçõescontribuições
          fecharplay/pause subir/descer velocidade
            acordes
            fechar
            OK
            Feedback