Cifra Club

Feel So Close

Calvin Harris

Cifra: Principal
exibições 133.774
Tom: G
Am           Em                G                     C
 I feel so close to you right now it's a force field
Am           Em             G                    C
 I wear my heart upon my sleeve, like a big deal
Am                 Em             G                        C
 Your love pours down on me, surrounds me like a waterfall
Am                 Em               G
 And there's no stopping us right now

            C
I feel so close to you right now

(Guitar Riff):


E|------8-8-8-8---7-7-7-7----7-7-7-7----3-3-3-3------------------|
B|-----8-8-8-8---8-8-8-8----5-5-5-5----1-1-1-1-------------------|
G|---------------------------------------------------------------|
D|---------------------------------------------------------------|
A|---------------------------------------------------------------|
E|---------------------------------------------------------------| x6


Am           Em                G                     C
 I feel so close to you right now it's a force field
Am           Em             G                    C
 I wear my heart upon my sleeve, like a big deal
Am                 Em             G                        C
 Your love pours down on me, surrounds me like a waterfall
Am                 Em               G
 And there's no stopping us right now

            C
I feel so close to you right now

(Guitar Riff):


E|------8-8-8-8---7-7-7-7----7-7-7-7----3-3-3-3------------------|
B|-----8-8-8-8---8-8-8-8----5-5-5-5----1-1-1-1-------------------|
G|---------------------------------------------------------------|
D|---------------------------------------------------------------|
A|---------------------------------------------------------------|
E|---------------------------------------------------------------| x6



Am                 Em               G  C
 And there's no stopping us right now
Am                 Em               G  C
 And there's no stopping us right now
Am                 Em               G  C
 And there's no stopping us right now

           Am
I feel so close to you right now

(Guitar Riff):


E|------8-8-8-8---7-7-7-7----7-7-7-7----3-3-3-3------------------|
B|-----8-8-8-8---8-8-8-8----5-5-5-5----1-1-1-1-------------------|
G|---------------------------------------------------------------|
D|---------------------------------------------------------------|
A|---------------------------------------------------------------|
E|---------------------------------------------------------------| x4
Acordes para:

    0 comentários

      mostrar mais comentários

      Conseguiu tocar?

      64tocaram1ainda não

      Grave um vídeo tocando Feel So Close e mande pra gente!

      00:00 / 00:00
      outros vídeos desta música
      repetirqualidadeautomática
      Outro vídeos desta música
        00:00 / 00:00
        automática
        OK