Cifra Club

Independência

Capital Inicial

Cifra: Principal
exibições 976.728
Tom: F
Intro:

(Violão 1 - Riff e Dedilhado)

Riff:
   C   C   C C4  C5               C4  C
E|--------------------|---------------------|
B|--------------------|---------------------|
G|--------------------|---------------------|
D|-2---2---2-3---5----|-----5---5-3---2-----|
A|-3-3-3-3-3-3-3-3----|-3-3-3-3-3-3-3-3-3-3-|
E|--------------------|---------------------|
   C   C   C C4  C5            C4
E|-----------------|------------------------|
B|-----------------|------------------------|
G|-----------------|------------------------|
D|-2---2---2-3---5-|-----5---5-3------------|
A|-3-3-3-3-3-3-3-3-|-3-3-3-3-3-3------------|
E|-----------------|------------------------|

Dedilhado:
   Am7       C4       Am7        C4
E|------------------------------------------|
B|-------1--------1---------1----------1----|
G|-----0---0----0---0-----0---0------0---0--|
D|---2-------3----------2----------3--------|
A|-0---------3--------0----------3----------|
E|------------------------------------------|

(Violão 2 - Riff e Solo)

Riff:
   C   C   C C4  C5          C4  C
E|-------------------------------------|
B|-5---5---5-6---8-----8---8-6---5-----|
G|-5-5-5-5-5-5-5-5-5-5-5-5-5-5-5-5-5-5-|
D|-------------------------------------|
A|-------------------------------------|
E|-------------------------------------|
   C   C   C C4  C5
E|-------------------------------------|
B|-5---5---5-6---8-----8---8-----------|
G|-5-5-5-5-5-5-5-5-5-5-5-5-5-----------|
D|-------------------------------------|
A|-------------------------------------|
E|-------------------------------------|

Solo:
E|------------------------------|
B|----8--6--5-----6-------------|
G|-5-----------5-----5----------|
D|------------------------------|
A|------------------------------|
E|------------------------------|

E|----------------8-------------|
B|----5-----5--6----------------|
G|-5-----5----------------------|
D|------------------------------|
A|------------------------------|
E|------------------------------|

Primeira Parte:
(Violão 1)
(Riff)
   Toda essa curiosidade  que você tem pelo que eu faço
(Parte 3)
   Eu não gosto de me explicar,  eu não gosto de me explicar
(Riff)
   Toda essa intensidade  buscamos identidade

Bb5(9)               F7M      Bb5(9)            F7M
     Mas não sabemos explicar,      não sabemos explicar
(Riff)
   Se paro e me pergunto:  será que existe alguma razão
(Parte 3)                                          C5
   Prá viver assim, se não estamos de verdade juntos

Violão 2: (Riff)
Parte 03:
   A5                F5
E|---------------------------------------|
B|---------------------------------------|
G|---------------------------------------|
D|---------------------------------------|
A|-7-7-7-7-7-7-7-7-7-3-3-3-3-3-3-3-3-3---|
E|-5-5-5-5-5-5-5-5-5-1-1-1-1-1-1-1-1-1---|

(Riff)

(Parte 4)
Bb5(7M/9)             B7M F5      Bb5(7M/9)         B7M F5
      ...Mas não sabemos   explicar,        não sabemos   explicar

(Riff)

(Parte 3)
Parte 5:
E|---------------------------------------|
B|---5--6--5--6--5--6--5-6-6-6-6-6-5-----|
G|---5--5--5--5--5--5--5-5-5-5-5-5-5-----|
D|---------------------------------------|
A|---------------------------------------|
E|---------------------------------------|

Refrão:
Am7              Am7/G          F7M                              Am7
   Procuramos independência,   acreditamos na distância entre nós
              Am7/G      F7M
Procuramos independência,   acreditamos na distância entre nós
Violão 2 - Dedilhado do Refrão:
  Am7       Am7/G         F7M
E|-------------------------------0---------0---|
B|-------1-----------1---------1---1-----1---1-|
G|-----0---0------0-----0----0---------0-------|
D|---2---------2-----------3---------3---------|
A|-0-------------------------------------------|
E|-----------3---------------------------------|

(Riff)
   Toda essa meia-verdade, a qual temos nos conformado
(Parte 3)
   Só conseguimos nos afastar,   nós aprendemos a aceitar
(Riff)
   Tantas coisas pela metade,  como essa imensa vontade
Bb5(9)             F7M      Bb5(9)                 F7M
   Que não sabemos explicar,      que não sabemos saciar
(Riff)
   Se paro e me pergunto: será que existe alguma razão
(Parte 3)
   Prá viver assim, se não estamos de verdade juntos

Violão 2: (Riff)
          (Parte 3)
          (Riff)
          (Parte 4)
          (Riff)
          (Parte 3)
          (Parte 5)

Refrão:
Am7              Am7/G      F7M                                  Am7
   Procuramos independência,   acreditamos na distância entre nós
              Am7/G      F7M
Procuramos independência,   acreditamos na distância entre nós

(Violão 1 - Base do Solo: (Riff)
                          (Parte 3 - 2x)

( C5 )
Violão 2 - Solo:
E|--8--6b7--------------------------------|
B|-------------8-7-6-4b5------------------|
G|------------------------5---------------|
D|----------------------------------------|
A|----------------------------------------|
E|----------------------------------------|

E|----------------------------------------|
B|----------------------------------------|
G|------5----7b8-----5--5-----------------|
D|-5h7-----7------7--------7--5-----------|
A|----------------------------------------|
E|----------------------------------------|

E|----------------------------------------|
B|----------------------------------------|
G|--------5--7--7b8-5---5--5-7-5----------|
D|-5h7-7--------------7-------------------|
A|----------------------------------------|
E|----------------------------------------|

E|----------------------------------------|
B|----------------------------------------|
G|-----x--5-----x-------------------------|
D|-5h7-x----7-5-x--5----------------------|
A|-----x--------x----7-3------------------|
E|----------------------------------------|

E|----------------------------------------|
B|---5--6--5--6--5--6--5-6-6-6-6-6-5------|
G|---5--5--5--5--5--5--5-5-5-5-5-5-5------|
D|----------------------------------------|
A|----------------------------------------|
E|----------------------------------------|

Refrão:
Am7              Am7/G      F7M                                  Am7
   Procuramos independência,   acreditamos na distância entre nós
              Am7/G      F7M                                Am7   Am7/G
Procuramos independência,   acreditamos na distância entre nós

 F7M               Am7  Am7/G  F7M
Nananara nananara  ahh yehh   nananara nananara

Violão 2:  (Dedilhado do Refrão)

Final:
(Riff 8x)
  Toda essa curiosidade
  Toda essa intensidade
  Toda essa meia-verdade
  Tantas coisas pela metade
  Toda essa curiosidade
  Toda essa intensidade

Violão 2: (Riff 8x)
Acordes para:

    0 comentários

      mostrar mais comentários

      Conseguiu tocar?

      35tocaram3ainda não

      Grave um vídeo tocando Independência e mande pra gente!

      00:00 / 00:00
      outros vídeos desta música
      repetirqualidadeautomática
      Outro vídeos desta música
        00:00 / 00:00
        automática
        Capítulos
        • Início
        • Tocando a música
        • Acordes da introdução
        • Tocando introdução
        • Ensinando riff e dedilhado da intro (parte 1)
        • Ensinando riff e dedilhado da intro (parte 2)
        • Ensinando riff e dedilhado da intro (parte 3)
        • Ensinando riff intro - violão 2 (parte 1)
        • Ensinando riff intro - violão 2 (parte 2)
        • Ensinando solo - violão 2
        • Acordes da primeira parte
        • Tocando primeira parte
        • Ensinando ritmo da primeira parte (parte 1 a 3)
        • Ensinando ritmo da primeira parte (parte 4)
        • Ensinando ritmo da primeira parte (parte 5)
        • Ensinando primeira parte - violão 2 (parte 1 e 2)
        • Ensinando primeira parte - violão 2 (parte 3)
        • Ensinando primeira parte - violão 2 (parte 4)
        • Ensinando primeira parte - violão 2 (parte 5)
        • Tocando primeira parte (violão 2)
        • Acordes do refrão
        • Tocando refrão
        • Ensinando ritmo do refrão
        • Ensinando dedilhado refrão (violão 2)
        • Dicas para variação
        • Tocando trecho (variação)
        • Ensinando solo (parte 1)
        • Ensinando solo (parte 2)
        • Ensinando solo (parte 3)
        • Ensinando solo (parte 4)
        • Ensinando solo (parte 5)
        • Tocando trecho final
        • Encerramento
        OK