Cifra Club

Aprenda

Cosmicômica

Carbona

Cifra: Principal (violão e guitarra)
Quer fazer aulas de música com a gente? Responda essas perguntas
e nos ajude nesse projeto! →
tom: A
Riff 1:
|---------------------------------------|
|-----------4~----6-6-6-6-6-4-----------|
|--3--5--6---------------------6--5--6--|
|---------------------------------------|
|---------------------------------------|
|---------------------------------------| 4x

Riff 2:
|--------------------------|
|--------4h6--4------------|
|--3--55--------------4----|
|----|  3x     |--6-5---5--|
|--------------------------|
|--------------------------| 3x

Riff 1 - 2x

Riff 2 - 2x

Riff 1 - 2x

Final:
|-------------------------------------|
|--4h6-4--------4-------4h6-----------|
|---------6--5-----5---------6--5--3--|
|-------------------------------------|
|-------------------------------------|
|-------------------------------------|

|------------------------------------|
|--4h6--4----------------------------|
|----------6--5--3--5--6--3-3-3-3-3--|
|------------------------------------|
|------------------------------------|
|------------------------------------|

a base fica todo tempo em: A D E
Tem algumas variações mas nada complexo.
Compositor não encontrado.
Colaboração e revisão:
  • Danilo Goncalves
2.850 exibições
    • ½ Tom
    • A
    • Bb
    • B
    • C
    • Db
    • D
    • Eb
    • E
    • F
    • F#
    • G
    • Ab
  • Adicionar à lista

    0 comentários

    Ver todos os comentários

    Conseguiu tocar?

    0 Tocaram 0 Ainda não

    Grave um vídeo tocando Cosmicômica e nos envie!

    00:00 / 00:00
    Outros vídeos desta música
    Repetir Qualidade Automático
    Outros vídeos desta música
    00:00 / 00:00
    Automático

    Cifra Club Pro

    Aproveite o Cifra Club com benefícios exclusivos e sem anúncios
    Cifra Club Pro
    Aproveite o Cifra Club com benefícios exclusivos e sem anúncios
    OK