Cifra Club

Aprenda

Tom Araya

Carbona

Cifra: Principal (violão e guitarra)
Já pensou em usar uma coleção de roupas do Cifra Club? Responda as perguntas abaixo e nos ajude nessa missão! →
tom: B
Riff 1
E|-----------------------------------------|
B|---5/7-7-7-7-7-9-7-------7---------------|
G|-------------------8-6-8---8-------------|
D|-----------------------------------------|
A|-----------------------------------------|
E|-----------------------------------------|

        B
Todo dia quando eu vou dormir
                G#
O Tom Araya tá cantando
        B
Sobre crimes de guerra
                                G#
E mazelas que atormentam o ser humano
        Em                      A#/B 
Amanhã o despertador vai tocar
        Em
Eu vou pro trabalho
                        F#      
E o Tom Araya toca em outro lugar

                B
E vai chover sangue

Voar gafanhoto
                G#
Todo mundo canta

Todo mundo morto
        Em
Eu sigo na vidinha
        F#                      A#/B 
O Tom Araya toca em outro lugar

                B
E vai chover sangue
Libertar o capeta
        G#
Todo mundo canta
De camisa preta
        Em
Eu sigo na vidinha
        F#                      A#/B 
O Tom Araya toca em outro lugar

Riff 2
E|-----------------------------------------|
B|---5/7-7-7-7-7-9-7-------7---7--7--------|
G|-------------------8-6-8---8---8--8--6---| (2x)
D|-----------------------------------------|
A|-----------------------------------------|
E|-----------------------------------------|

E5
E se o inferno te espera
        G#
Não há o que temer
        C#              E5
Uma temporada no abismo
                B
Serve pra aprender

E5
E se o inferno te espera
        G#
Não há o que temer
        C#              E5
Uma temporada no abismo
        C#              E5
Uma temporada no abismo
                F#
Serve pra aprender
Compositor não encontrado.
Colaboração e revisão:
  • Elton
44 exibições
    • ½ Tom
    • A
    • Bb
    • B
    • C
    • Db
    • D
    • Eb
    • E
    • F
    • F#
    • G
    • Ab
  • Adicionar à lista

    0 comentários

    Ver todos os comentários

    Conseguiu tocar?

    0 Tocaram 0 Ainda não

    Grave um vídeo tocando Tom Araya e nos envie!

    00:00 / 00:00
    Outros vídeos desta música
    Repetir Qualidade Automático
    Outros vídeos desta música
    00:00 / 00:00
    Automático

    Cifra Club Pro

    Aproveite o Cifra Club com benefícios exclusivos e sem anúncios
    Cifra Club Pro
    Aproveite o Cifra Club com benefícios exclusivos e sem anúncios
    OK