Cifra Club

Aprenda

Vertiplano

Carbona

Cifra: Principal (violão e guitarra)
Quer fazer aulas de música com a gente? Responda essas perguntas
e nos ajude nesse projeto! →
tom: A
Intro:
        A         E         D          E 
e|----5-7-9-----5-7-9-----5-7-9-----10-9-5-7-------------------------|
b|---5---------5---------7-------------------------------------------|
g|-------------------------------------------------------------------|
d|-------------------------------------------------------------------|
a|-------------------------------------------------------------------|
e|-------------------------------------------------------------------|
        A         E           D       E 
e|----5-7-9-----5-7-9-----10-9-7-----5-5-----------------------------|
b|---5---------5----------------------7-5----------------------------|
g|-------------------------------------------------------------------|
d|-------------------------------------------------------------------|
a|-------------------------------------------------------------------|
e|-------------------------------------------------------------------|


A           E
Por amores impossíveis
D             E
Eu jurei não mais sofrer
        A            E       
Não há nada nem ninguém no mundo
D              E
Que me impeça ter você

   F#              D      A           E   
Eu sei que existe por aí uma conspiração
F#                  D
Pra me deixar longe de você
     A          E      
Mas essa noite tudo acaba bem

(Refrão)
A   E      D            E    A  E
Eu vou te resgatar num Vertiplano
   D              E      F#
E levar para um lugar qualquer
         D             F#
Onde a gente fique em paz
         D     E
Onde a gente fique bem

A            E
Plano feito revisado
D            E
Tudo pronto pra Partir
A          E        D          E
Olho para sua foto nada vai me impedir

   F#              D      A           E   
Eu sei que existe por aí uma conspiração
F#                  D
Pra me deixar longe de você
     A          E      
Mas essa noite tudo acaba bem (Repete refrão)

F#         D         
Durante muito tempo
A           E
procurei explicação
F#           D              A         E     
Por que as coisas não são fáceis como na televisão
F#5        D5
Noites em claro
A5                E5 
Que eu me lembre foram mais de 100
F#5                   D5
O fim do sofrimento declaro
  A                 E
E essa noite tudo acaba bem

Solo:   
    A               E               D               E
e|-12--9-9-10-9-------------12--9-9-10-9-----------------------------|
b|-- 10--------12-10-12-10-9--10--------12-10-12-10-9-7--------------|
g|-------------------------------------------------------------------|
d|-------------------------------------------------------------------|
a|-------------------------------------------------------------------|
e|-------------------------------------------------------------------|
    F#     D     F#     D     E     
e|---------------------------9-9-------------------------------------|
b|-7-9-10-9-7-9-10---7-9-10-9---10-----------------------------------|
g|-------------------------------------------------------------------|
d|-------------------------------------------------------------------|
a|-------------------------------------------------------------------|
e|-------------------------------------------------------------------|

(Entra refrão logo após o solo sem intervalo)


(Refrão final)

B   F#      E            F#    B  F#
Eu vou te resgatar num Vertiplano
   E              F#      G#
E levar para um lugar qualquer
         E            G#
Onde a gente fique em paz
         E     F#   B
Onde a gente fique bem!
Composição de Henrique Badke
Colaboração e revisão:
  • Leonardo Denizot
7.364 exibições
    • ½ Tom
    • A
    • Bb
    • B
    • C
    • Db
    • D
    • Eb
    • E
    • F
    • F#
    • G
    • Ab
  • Adicionar à lista

    0 comentários

    Ver todos os comentários

    Conseguiu tocar?

    0 Tocaram 0 Ainda não

    Grave um vídeo tocando Vertiplano e nos envie!

    00:00 / 00:00
    Outros vídeos desta música
    Repetir Qualidade Automático
    Outros vídeos desta música
    00:00 / 00:00
    Automático

    Cifra Club Pro

    Aproveite o Cifra Club com benefícios exclusivos e sem anúncios
    Cifra Club Pro
    Aproveite o Cifra Club com benefícios exclusivos e sem anúncios
    OK