Cifra Club

Raio X

Carol Biazin

Cifra: Principal (violão e guitarra)
Selo Cifra Club: esta cifra foi revisada para atender aos critérios oficiais da nossa Equipe de Qualidade.
tom: A
[Intro - Tab]

  D7M          Bm9
E|-----------------------------|
B|-----7--5-----------5--------|
G|---6-----6-----6------4------|
D|--4------------4-------------|
A|-5-------------5-------------|
E|---------------7--7----------|

  A7M(9)       F#m6
E|-----------------------------|
B|-------------------------5---|
G|-4--6------------4--2--4-----|
D|-6----6---------4------------|
A|-7------7--------------------|
E|-5-------------2-------------|


D7M
Te vi passar
                     Bm9
Com tua roupa larga em tom pastel

Não vou negar
A7M(9)
Você me envolveu
               F#m6
Tipo Saturno e seu anel
               D7M
Não me parece ser real
                Bm9
Olha o gatilho que você me deu
                        A7M(9)
E agora eu sinto a sua falta
                      F#m6
E esse sintoma nunca passa

D7M
Melhor deixa pra lá né

Deixar pra lá
Bm9
Cê de lá e eu de cá né

E eu de cá
A7M(9)
Tem tanta coisa em jogo

Tanto sentimento
F#m6
Melhor perder

Do que ser arrependimento
         D7M
É que cê me olha feito um raio x
        Bm9
Tenta encontra o que eu nunca vi em mim
        A7M(9)
E juro por Deus que eu tô por um triz
       F#m6
Mas é melhor perder

Do que se arrepender

[Interlúdio - Tab]

  D7M          Bm9
E|-----------------------------|
B|-----7--5-----------5--------|
G|---6-----6-----4/6-----4-----|
D|--4------------4-------------|
A|-5---------------------------|
E|---------------7-------------|

  A7M(9)    F#m6
E|-----------------------x-----|
B|-----------------------x-----|
G|-4---------------4--2--x-----|
D|-6--6-----------4------x-----|
A|-7----7----------------x-----|
E|-5-------5-----2-------x-----|

(Modulação para o tom de F)
(Faz a mesma forma dos acordes porém avançando 3 casas)

      F7M
É que cê me olha, mas não me toca
                          Dm9
Chega mais perto, mas nem tão perto
                                          C7M(9)
Um pouco mais perto, eu já me perco, sabe que eu quero
                    Am6
Eu já me perco sabe que eu me entrego
               F7M
Não me parece ser real
                Dm9
Olha o gatilho que você me deu
                        C7M(9)
E agora eu sinto a sua falta
                      Am6
E esse sintoma nunca passa
F7M
Melhor deixa pra lá né

Deixar pra lá
Dm9
Cê de lá e eu de cá né

E eu de cá
C7M(9)
Tem tanta coisa em jogo

Tanto sentimento
Am6
Melhor perder

Do que ser arrependimento
         F7M
É que cê me olha feito um raio x
        Dm9
Tenta encontra o que eu nunca vi em mim
        C7M(9)
E juro por Deus que eu tô por um triz
       Am6
Mas é melhor perder

Do que se arrepender

[Final - Tab]

  F7M             Dm9
E|-----------------------------|
B|-----10----8----------8------|
G|---9----9--------7/9-----7---|
D|--7--------------------------|
A|-8---------------------------|
E|-----------------10----------|

  C7M(9)          Am6
E|--------------------------x--|
B|--------------------------x--|
G|-7------------------7--5--x--|
D|-9--9-------------7-------x--|
A|-10---10------------------x--|
E|-8---------8----5---------x--|
Outros vídeos desta música
18.151 exibições
    • ½ Tom
    • A
    • Bb
    • B
    • C
    • Db
    • D
    • Eb
    • E
    • F
    • F#
    • G
    • Ab
  • Adicionar à lista

Afinação da cifra

Afinador online

    0 comentários

    Ver todos os comentários

    Conseguiu tocar?

    6 Tocaram 0 Ainda não

    Grave um vídeo tocando Raio X e nos envie!

    Entre para o Cifra Club PRO

    Tenha acesso a benefícios exclusivos no App e no Site

    • Chega de anúncios

    • Mais recursos no app do Afinador

    • Atendimento Prioritário

    • Aumente seu limite de lista

    • Ajude a produzir mais conteúdo

    Cifra Club Pro

    Aproveite o Cifra Club com benefícios exclusivos e sem anúncios
    Cifra Club Pro
    Aproveite o Cifra Club com benefícios exclusivos e sem anúncios
    OK