Cifra Club

Honestly Intro

Cartel

Cifra: Principal (violão e guitarra)
tom: Db
Guitar 1
E||--------------4--6--|--4----------------------|----------------------|
B||--------------------|-----7--6--7--9--7--6----|----------------------|
G||--------------------|-------------------------|----6----6----6----6--|
D||--------------------|-------------------------|----------------------|
A||--------------------|-------------------------|----4----4----4----4--|
D||--------------------|-------------------------|----------------------|


                                                                      
----------------------|----------------------|-----------------------|
----------------------|----------------------|-----------------------|
----6----6----6----6--|----6----6----6----6--|----6----6--6--6--6----|
----------------------|----------------------|-----------------------|
----4----4----4----4--|----4----4----4----4--|----4----4--4--4--4----|
----------------------|----------------------|-----------------------|


                                                                     
----------------------|----------------------|----------------------|
----------------------|----------------------|----------------------|
----6----6----6----6--|----6----6----6----6--|----6----6----6----6--|
----------------------|----------------------|----------------------|
----4----4----4----4--|----4----4----4----4--|----4----4----4----4--|
----------------------|----------------------|----------------------|


                                                                
-----------------------|
-----------------------|
----6----6--6--6--6----|
-----------------------|
----4----4--4--4--4----|
-----------------------|

Guitar 2
|--------------------|--------------------------|----------------------|
|--------------6--7--|--6-----------------------|----------------------|
|--------------------|-----8--6--8--10--8--6----|----------------------|
|--------------------|--------------------------|--4--4--6--6----------|
|--------------------|--------------------------|--4--4--6--6----------|
|--------------------|--------------------------|--4--4--6--6----------|


                                                                        
----------------------|-----------------------|------------------------|
----------------------|-----------------------|------------------------|
--6--6--5--5----------|------------------6----|--6----6--5--6--5-------|
--6--6--6--6----------|--4--4--6--6------6----|--6----6--6--6--6--6----|
--4--4--3--3----------|--4--4--6--6------4----|--4----4--3--4--3--6----|
----------------------|--4--4--6--6-----------|-------------------6----|


                                                                      
----------------------|----------------------|-----------------------|
----------------------|----------------------|-----------------------|
----------------------|--6--6--5--5----------|------------------6----|
--4--4--6--6----------|--6--6--6--6----------|--4--4--6--6------6----|
--4--4--6--6----------|--4--4--3--3----------|--4--4--6--6------4----|
--4--4--6--6----------|----------------------|--4--4--6--6-----------|


                                                                       
------------------------|
------------------------|
--6----6--5--6--5-------|
--6----6--6--6--6--6----|
--4----4--3--4--3--6----|
-------------------6----|

Play it and it'll sound right i bet you
                                                                        


                                                                      
00:00 / 00:00
Outros vídeos desta música
Repetir
Outros vídeos desta música
Compositor não encontrado.
567 exibições
    • ½ Tom
    • A
    • Bb
    • B
    • C
    • Db
    • D
    • Eb
    • E
    • F
    • F#
    • G
    • Ab
  • Adicionar à lista

    0 comentários

    Ver todos os comentários

    Entre para oCifra Club PRO

    Tenha acesso a benefícios exclusivos no App e no Site

    • Chega de anúncios

    • Prioridade de compra em lançamentos

    • Mais recursos no app do Afinador

    • Atendimento Prioritário

    • Descontos nos produtos Cifra Club

    • Ajude a produzir mais conteúdo

    00:00 / 00:00

    Cifra Club Pro

    Aproveite o Cifra Club com benefícios exclusivos e sem anúncios
    Cifra Club Pro
    Aproveite o Cifra Club com benefícios exclusivos e sem anúncios
    OK