Cifra Club

Acontece

Cartola

Cifra: Versao-4 (violão e guitarra)
Selo Cifra Club: esta cifra foi revisada para atender aos critérios oficiais da nossa Equipe de Qualidade.
tom: E
[Intro] E/G#  Gm6(5+)  F#m11  B7(9-)

[Tab - Intro]

     E/G#           Gm6(5+)        F#m11          B7(9-)     
E|------------------------------------------------------|
B|---5------5-------4------4-------0------0-------1-----|
G|---4--4-----------3--3-----------2--2-----------2-----|
D|---2----2---------2----2---------2----2---------1-----|
A|------------------------------------------------2-----|
E|---4--------------3--------------2--------------------|

 E7M                     F#m7  B7(4/9)
Esquece nosso amor, vê se esquece
 E/G#          C#m7     F#m7  B7(9)
Porque tudo no mundo acontece
     E            E/D#    E/D       A  G7 
E acontece que já não sei mais amar
     C            C#º     Dm7(9)     G4   C7M
Vai chorar, vai sofrer, e você não merece
          B7   B7/A
Mas isso acontece
    E7M                     F#m7  B7(4/9)
Acontece  que meu coração ficou frio
    E/G#          C#m7       F#m7   B7(9) E7(9)
E o nosso ninho de amor está vazio
A                     C5-          C5-/A
Se eu ainda pudesse fingir que te amo
G#m7(5-)       G7
Ah, se eu pudesse
          F#m11           B7(9-)
Mas não quero, não devo fazê-lo
            E7M  Am6 E7M
Isso não acontece

    E7M    F#m7  B7(4/9)   E/G#  C#m7  F#m7  B7(9)
E|--0--------------4--0--2---------4--------------------|
B|--0----2---2-----2-----2---5-----5-----2-----2--------|
G|--1----3---2-----2-----2---4-----4-----2-----2--------|
D|--1----2---2-----2-----2---2-----6-----2-----1--------|
A|--2--------------2-----2---------4-----------2--------|
E|--0----3---2---------------4-----------2--------------|

   E  E/D#  E/D     A            G7   C#º  Dm7(9)  G4
E|-0---0-----0------0------------3------------------3---|
B|-0---0-----0------2------------3-----5----5-------5---|
G|-1---1-----1------2------------4-----3----5-------4---|
D|-2---1-----0------2--2h--------3-----5----3-------3---|
A|------------------0-----5------5-----4----5-------3---|
E|---------------0-----------5-4-3------------------3---|

  E7(9)  C5-  C5-/A  G#m7(5-)  G7    Am6  E7M
E|-2----------------------------------------------------|
B|-3-----5----5------3---------2-----5----9-------------|
G|-1-----5----5------4---------4-----5----8-------------|
D|-2-----4----4------4---------3-----4----9-------------|
A|-------3----0---------------------------7-------------|
E|-------------------4---------3-----5------------------|
Outros vídeos desta música
    818 exibições
      • ½ Tom
      • A
      • Bb
      • B
      • C
      • Db
      • D
      • Eb
      • E
      • F
      • F#
      • G
      • Ab
    • Adicionar à lista

    Afinação da cifra

    Afinador online

      0 comentários

      Ver todos os comentários

      Entre para o Cifra Club PRO

      Tenha acesso a benefícios exclusivos no App e no Site

      • Chega de anúncios

      • Badges exclusivas

      • Mais recursos no app do Afinador

      • Atendimento Prioritário

      • Aumente seu limite de lista

      • Ajude a produzir mais conteúdo

      Cifra Club Pro

      Aproveite o Cifra Club com benefícios exclusivos e sem anúncios
      Cifra Club Pro
      Aproveite o Cifra Club com benefícios exclusivos e sem anúncios
      OK