Cifra Club

Alvorada

Cartola

Cifra: Principal (violão e guitarra)
Selo Cifra Club: esta cifra foi revisada para atender aos critérios oficiais da nossa Equipe de Qualidade.
tom: Eb
[Intro] Eb7M(9)

[Refrão]

[Tab - Frases]

[Frase 1]
   Fm7     Bb/D  Bb    Eb/G           Gb°
E|------------------------------------------|
B|-----------3-----3-----4-4---4----4---4---|
G|-----------3-----3-----3-3---3----3---5---|
D|-----3-1---3-----3-----1-1---1--5---4-----|
A|---------5-----1--------------------------|
E|-1-4---------------4-3-----3--------------|

[Frase 2]
   Fm7         Bb/D  Bb  Eb/G
E|------------------------------------------|
B|---1-----------3---3------4---------------|
G|---1-----------3---3------3---------------|
D|---1-----3-1---3---3------1---------------|
A|-------------5-----1----------------------|
E|-1---1-4-------------4--3-----------------|

[Frase 3]
                          Bbm/Db     
E|------------------------------------------|
B|--------------------------2--2---2--------|
G|-----------0-3--0---------3--3---3--------|
D|-----0-1-3--------3-1-0---3--3---3--------|
A|-1-3--------------------4------4----------|
E|------------------------------------------|

[Frase 4]
   C7           F7
E|------------------------------------------|
B|-1-1-----1--------------------------------|
G|-3-3-----2--------------------------------|
D|-2---2----------------------------1-0-----|
A|-3-----3------------0--1-2-3--3-4-----4-3-|
E|-----------0--1-3-4-----------------------|

[Frase 5]
   B6       Bb7  Bb/Ab  Eb/G
E|------------------------------------------|
B|---0---0----3----3------4-----------------|
G|---1---1----1----3------3-----------------|
D|---1---1----3----3------1-----------------|
A|-2---2----1-------------------------------|
E|---------------4---4--3-------------------|

[Frase 6]
         C7
E|------------------------------------------|
B|----------1------1------------------------|
G|----------3------3------------------------|
D|----------2------2------------------------|
A|-------3--3-------------------------------|
E|-4-3-2-------0---3------------------------|

[Frase 7]
   Fm7         Bb/D  Bb  Eb/G
E|------------------------------------------|
B|---1-----------3---3-----4----------------|
G|---1-----------3---3-----3----------------|
D|---1-----3-1---3---3-----1----------------|
A|-------------5-----1----------------------|
E|-1---1-4-------------4-3------------------|

[Frase 8]
         Eb/G   Gb°
E|------------------------------------------|
B|------------------------------------------|
G|------------------------------------------|
D|-----0-1-3-5--4---------------------------|
A|-1-3--------------------------------------|
E|------------------------------------------|

[Frase 9]
   Eb/G
E|------------------------------------------|
B|------------------------------------------|
G|-----------0------------------------------|
D|-----0-1-3--------------------------------|
A|-1-3--------------------------------------|
E|------------------------------------------|

     Fm7        Bb/D  [Frase 1]
Alvorada lá no morro 
  Bb/Ab  Eb/G 
Que   beleza
                Gb°        Fm7 [Frase 2]
Ninguém chora, não há tristeza
Bb/D          Bb       Eb/G [Frase 3]
     Ninguém sente dissabor
           Bbm/Db     C7           F7  [Frase 4]
O sol colorido é tão lindo, é tão lindo
                 B6  [Frase 5]
E a natureza sorrindo
    Bb7  Bb/Ab
Tingindo
    Eb/G       C7  [Frase 6]
Tingindo, Alvorada

     Fm7        Bb/D [Frase 7]  
Alvorada lá no morro 
  Bb/Ab  Eb/G [Frase 8]
Que   beleza
                Gb°        Fm7 [Frase 7]
Ninguém chora, não há tristeza
Bb/D          Bb       Eb/G [Frase 3]
     Ninguém sente dissabor
           Bbm/Db     C7           F7  [Frase 4]
O sol colorido é tão lindo, é tão lindo
                 B6  
E a natureza sorrindo
    Bb7  Bb/Ab
Tingindo
    Eb/G  [Frase 9]  
Tingindo

[Primeira Parte]

[Tab - Frases]

[Frase 10] 
       Eb/Db     Ab/C          Bb°     Ab
E|------------------------------------------|
B|-------4---4-----1--1----------3---3------|
G|-------3---3-----1--1----------0---0------|
D|-------5---5-----1--1----------2-1--------|
A|-6-5-4---4-----3---------3-2-1------------|
E|----------------------4--------------4----|

[Frase 11] 
                             Fm7          Bb/D
E|------------------------------------------|
B|-----------------------------1------------|
G|-----------------------------1------------|
D|-1-------------1-------------1------3-1---|
A|---------1-2-3---3-1--------------------5-|
E|---4-3-4-------------4-3-2-1----1-4-------|

[Frase 12]
                Bbm/Db     C7
E|------------------------------------------|
B|----------------1---1--1-----1------------|
G|----------------3---3--------3------------|
D|----------------3---3--------2------------|
A|------0-1-2-3-4---4------3-3---3----------|
E|-3-4--------------------------------------|

[Frase 13]
   Fm7        Bb/D        Eb7M(9)  C7
E|------------------------------------------|
B|---1-----------3------2-------------------|
G|---1-----------3----3-------5-------------|
D|---1-----3-1---3--------5-4---------------|
A|-------------5---1---------------3--------|
E|-1---1-4---------------------------0-3-1--|

   Eb           D7(9-)       Gm7
Você também me lembra a alvorada
         Eb/Db     Ab/C [Frase 10]
Quando chega iluminando  
 Bb°                   Ab [Frase 11] 
Meus caminhos tão sem vida
            Fm7  
E o que me resta 
       Bb/D        Bbm/Db [Frase 12] 
É bem pouco quase nada
       C7        Fm7    Bb/D [Frase 13] 
Do que ir assim vagando
         Bb   Eb7M(9)      C7
Numa estrada perdida, Alvorada

[Refrão]

[Tab - Frases]

[Frase 3 - Variação]
                          Bbm/Db
E|------------------------------------------|
B|--------------------------2---------------|
G|-----------0-3--0---------3---------------|
D|-----0-1-3--------3-1-0---3---------------|
A|-1-3--------------------4---4-4-----------|
E|------------------------------------------|

[Frase 4 - Variação 1]
   C7             F7
E|------------------------------------------|
B|---1--------------------------------------|
G|---3--------------------------------------|
D|---2-----------------------1-0------------|
A|-3---1-------0--1-2-3--3-4-----4-3--------|
E|-------1-3-4------------------------------|

[Frase 5 - Variação 1]
   B6       Bb7  Bb/Ab           C7
E|------------------------------------------|
B|---0---0----3-----3-----------------------|
G|---1---1----1-----3-----------------------|
D|---1---1----3-----3---5-4-3-2-------------|
A|-2---2----1--------------------3----------|
E|----------------4---3------------0-3-1----|

[Frase 4 - Variação 2]
   C7                F7
E|------------------------------------------|
B|-1---1------------------------------------|
G|-3---3------------------------------------|
D|-2---2------------------------1--0--------|
A|-3---3----------0--1-2-3--3-4------4-3----|
E|---0---0--1-3-4---------------------------|

[Frase 5 - Variação 2]
   B6       Bb7  Bb/Ab  Eb/G         
E|------------------------------------------|
B|---0--------3----3------------------------|
G|---1--------1----3-----------------0------|
D|---1--------3----3-----------0-1-3--------|
A|-2---2--2-1--------------1-3--------------|
E|---------------4------3-------------------|

     Fm7        Bb/D  [Frase 1]
Alvorada lá no morro 
  Bb/Ab  Eb/G 
Que   beleza
                Gb°        Fm7 [Frase 2]
Ninguém chora, não há tristeza
Bb/D          Bb       Eb/G 
     Ninguém sente dissabor

(Frase 3 - Variação)

           Bbm/Db
O sol colorido 

(Frase 4 - Variação 1)

       C7           F7  
É tão lindo, é tão lindo

(Frase 5 - Variação)

                 B6  
E a natureza sorrindo
    Bb7  Bb/Ab  
Tingindo
               C7 
Tingindo, Alvorada

     Fm7        Bb/D  [Frase 1]
Alvorada lá no morro 
  Bb/Ab  Eb/G 
Que   beleza
                Gb°        Fm7 [Frase 2]
Ninguém chora, não há tristeza
Bb/D          Bb       Eb/G 
     Ninguém sente dissabor

(Frase 3 - Variação)

           Bbm/Db 
O sol colorido

(Frase 4 - Variação 2)

       C7           F7  
É tão lindo, é tão lindo

(Frase 5 - Variação 2)

                 B6
E a natureza sorrindo
    Bb7  Bb/Ab
Tingindo
    Eb/G           
Tingindo

[Primeira Parte]

[Tab - Frases]

[Frase 14]
                  Eb             
E|------------------------------------------|
B|------------------------------------------|
G|------------------------------------------|
D|----------0-----5-------------------------|
A|--1-0-1-3---6-8---6-----------------------|
E|--------------------8-6-5-----------------|

[Frase 10 - Variação]
          Eb/Db   Ab/C        Bb°       Ab 
E|------------------------------------------|
B|----------4---4---1-----------3----3------|
G|----------3---3---1-----------0----0------|
D|-5--------5---5---1-----------2--1--------|
A|----6-5-4---4---3-----4-3-2-1-------------|
E|--------------------4-----------------4---|

   Eb                      Gm7 [Frase 14]
Você também me lembra a alvorada

(Frase 10 - Variação)

         Eb/Db     Ab/C 
Quando chega iluminando  
 Bb°                   Ab  
Meus caminhos tão sem vida
            Fm7  
E o que me resta 
       Bb/D        Bbm/Db [Frase 12] 
É bem pouco quase nada
       C7        Fm7    Bb/D [Frase 13] 
Do que ir assim vagando
         Bb   Eb7M(9)      C7
Numa estrada perdida, Alvorada

[Refrão Final]

[Tab - Frases]

[Frase 7 - Variação]
E|------------------------------------------|
B|---1--------------------------------------|
G|---1--------------------------------------|
D|---1-----3-1------------------------------|
A|-------------5--1-------------------------|
E|-1---1-4----------4-3---------------------|

[Frase 8 - Variação]
E|------------------------------------------|
B|------------------------------------------|
G|-----------0------------------------------|
D|-----0-1-3--------------------------------|
A|-1-3--------------------------------------|
E|-------------3-2--------------------------|

     Fm7        Bb/D [Frase 7]  
Alvorada lá no morro 
  Bb/Ab  Eb/G [Frase 8]
Que   beleza
                Gb°        Fm7 [Frase 7]
Ninguém chora, não há tristeza
Bb/D          Bb       Eb/G 
     Ninguém sente dissabor

(Frase 3 - Variação)

           Bbm/Db 
O sol colorido 

[Frase 4 - Variação 1]

       C7           F7  
É tão lindo, é tão lindo
00:00 / 00:00
Outros vídeos desta música
Repetir
Outros vídeos desta música
236.811 exibições
  • Simplificar cifra
    • ½ Tom
    • A
    • Bb
    • B
    • C
    • Db
    • D
    • Eb
    • E
    • F
    • F#
    • G
    • Ab
  • Adicionar à lista

Afinação da cifra

Afinador online

    0 comentários

    Ver todos os comentários

    Entre para o Cifra Club PRO

    Tenha acesso a benefícios exclusivos no App e no Site

    • Chega de anúncios

    • Mais recursos no app do Afinador

    • Atendimento Prioritário

    • Aumente seu limite de lista

    • Ajude a produzir mais conteúdo

    00:00 / 00:00

    Cifra Club Pro

    Aproveite o Cifra Club com benefícios exclusivos e sem anúncios
    Cifra Club Pro
    Aproveite o Cifra Club com benefícios exclusivos e sem anúncios
    OK