Enviar cifraEntrar

Morning Has Broken

Cat Stevens

Cifra: Principal
exibições 30.775
Tom: G
intro(piano)


      D                          G                    A
E|--2-----------2-----------|--3-----------3--2--|--0----------5------------|
B|--3--3-----3-----3-----3--|-----3--0--3--------|-----------5---5----------|
G|--2-----2-----------2-----|--------------------|---------6-------6--------|
D|--0-----------------------|--------------------|-------7-----------7------|
A|--------------------------|--------------------|--0-----------------------|
E|--------------------------|--3-----------------|--------------------------|


      F#                  Bm                          G7
E|--------------2--0--|------------7-------------|--1------------1-----|
B|--2--------2--------|--7-------7---7-----------|---------------------|
G|--3-----3-----------|--7-----7-------7---------|------------0--------|
D|-----4--------------|------9-----------9-------|---------0--------0--|
A|--------------------|--------------------------|------2--------2-----|
E|--2-----------------|--7-----------------------|--3------------------|


      C                          F                         C
E|--0-----------0-----------|-------------------------|--------0--||
B|-----------3-----3--1-----|--1-----------1----------|------1----||
G|--------0--------------0--|--2--2-----2--2--2-------|----0------||
D|-----2--------------------|--------3-----------0h2--|-----------||
A|--3-----------3-----------|--3-----------3----------|--3--------||
E|--------------------------|-------------------------|-----------||


                C  Dm   G              F  C
    Morning has broken, like the first morning.
                  Em Am   D7             G
    Blackbird has spoken, like the first bird.
    C              F        C              Am   D
    Praise for the singing, praise for the morning,
    G               C     F    G7             C
    praise for them springing, fresh from the world.
    F  G  E  Am  G  C  G7sus

                     C   Dm     G          F  C
    Sweet the rain's new fall, sunlit from heaven,
                   Em  Am    D7           G
    like the first dew fall, on the first grass.
    C              F          C          Am  D
    Praise for the sweetness, of the wet garden,
    G             C   F     G7             C
    sprung in completeness, where his feet pass.
    F  G  E  Am  F#  Bm  G  D  A7  D

                D    Em    A           G   D
    Mine is the sun light, mine is the morning,
                F#m  Bm    E7       A
    born of the one light, Eden saw play.
    D            G       D            Bm  E
    Praise with elation, praise every morning,
    A         D  G    A7         D
    God's recreation, of the new day.

    G  A  F#  Bm  G7  C  F  C

 repete 1° verso
  • 1
  • 2
  • 3
  • 4
  • 5
  • 6
  • 7
  • 8
  • 9
  • 10
  • 11
  • 12
    Acordes para:
      Composição: Cat Stevens / Jörgen ElofssonColaboração e revisão:
      • Nick Benson
      • edinho_lb@hotmail.com

      0 comentários

        mostrar mais comentários

        Conseguiu tocar?

        3tocaram0ainda não

        Grave um vídeo tocando Morning Has Broken e mande pra gente!

        00:00 / 00:00
        outros vídeos desta música
        repetirqualidadeautomática
        • automática
        Outro vídeos desta música
          00:00 / 00:00
          automática
          • automática
          Acordes para:violão e guitarra
          dificuldadeexibiçõescontribuições
          1 versão de Tab de gaitaexibiçõescontribuições
          1 versão de Guitar Proformatodownloadscontribuição
          fecharplay/pause subir/descer velocidade
            acordes
            fechar
            OK
            Feedback