Cifra Club

Aprenda

Amor Verdadeiro

Catedral

Cifra: Versão 2 (violão e guitarra)
tom: A
E|---------------0---0-------------------------------
B|--2-2-3-5-5-----0---0---------2--2--2-2------------
G|-------------4---4---4---2-2-4---|-----4-2-4-2-----
D|---------------------------------|-----------------
A|0--------------------------------|-------------0---
E|------------4----------2---------0-----------------

E|---------------------------------0---0----------
B|--7-5-7-5---0--5-5-0--2-2-0-------0---0---------
G|---------------|------|--------2---2---2--------
D|0--------------|------|-------------------------
A|---------------|------|-------------------------
E|----------0----5------4------2------------------

                   harmonico 7° casa

E|--------------|  e|-*                 E|----------|
B|-0-2--3-5-7---|  b|-*                 B|---0-0----|
G|2-----|-|-|---|  g|-*                 G|2-2----2--|
D|------|-|-|---|  R|-*                 D|----------|
A|------2-4-5---|  A|--                 A|---------0|
E|--------------|  E|--                 E|----------|

 A        E/G#  F#m         C#m  E
Amor verdadeiro, amor sem palavras
 A            E/G#  F#m           C#m E
Que chega sem medo,  que não se acaba
 D       E/G#  C#m  G#m    F#m
Deus abençoe  todo esse amor
 D       E/G#  C#m     G#m F#m
Que seja lindo em teu coração
           D   C#m Bm  E       A E/G# F#m C#m E (Intro)
Porque em mim, eu sei...amo você

 A        E/G# F#m          C#m E
Amor verdadeiro, amor que acalma
 A         E/G#  F#m           C#m E
Que bate no peito, preenche a falta
 D       E/G#  C#m  G#m    F#m
Deus abençoe  todo esse amor
 D       E/G#  C#m    G#m F#m
Que seja lindo em teu coração
           D  C#m  Bm  E        A E/G# F#m C#m E (Intro)
Porque em mim, eu sei...amo você
Composição de Cezar / Julio / Kim
Colaboração e revisão:
  • Fladson Silva
  • Kayo Santos
10.163 exibições
    • ½ Tom
    • A
    • Bb
    • B
    • C
    • Db
    • D
    • Eb
    • E
    • F
    • F#
    • G
    • Ab
  • Adicionar à lista

    0 comentários

    Ver todos os comentários
    00:00 / 00:00
    Outros vídeos desta música
    Repetir Qualidade Automático
    Outros vídeos desta música
    00:00 / 00:00
    Automático

    Cifra Club Pro

    Aproveite o Cifra Club com benefícios exclusivos e sem anúncios
    Cifra Club Pro
    Aproveite o Cifra Club com benefícios exclusivos e sem anúncios
    OK