Cifra Club

Eu Amo Mais Você

Catedral

Cifra: Principal
exibições 460.472
Tom: C
Intro: C  F  C  F  C  F  C  F
  
C
Depois Dessa Ventania O Temporal  
G
Fez Da Nossa Vida Um Mundo Desigual  
Dm                 F
Qual É A Tua?   O Teu Segredo?  
C                        G
Me Diz Como Eu Vou Decifrar?  
  
C
Minha Verdade É Absurda No Plural  
G
Mas Pra Mim Honestamente Isso É Normal  
Dm                      F
Na Minha Onda,   Teu Oceano  
C                   G
Me Ensina Como Navegar  
  
Dm            F         C  F  C F
Eu Amo Mais Você Do Que Eu
Dm            F         C  F  C F
Eu Amo Mais Você Do Que Eu
  
C
A Tardinha As Coisas Mudam Sem Parar  
G
E A Gente Fala Muito Por Falar  
Dm                      F
Mas De repente,   A Gente Sente  
C                     G
Que Tudo Sobrou Num Olhar  
  
C
Penso Infinitamente Sem Parar  
G
A Verdade E Transparente No Mirar  
Dm                   F
Da Tua Retina,   Minha Menina  
C                    G
Me Diz Como Não Te Amar?  
  
Dm            F         C  F C F
Eu Amo Mais Você Do Que Eu
Dm            F         C  F C F
Eu Amo Mais Você Do Que Eu
    
Base solo: C  G  Dm  F  C  G

E|--12--10-10----------------------------------------------------------------------|
B|------------------------5---6---8---6----5h6p5-----------------8-----------------|
G|----------------5---7----------------------------7--5--7-------------5-4----5-4--|
D|--------------5---5---5---5---5---5---5----------------------5-----5------5------|
A|---------------------------------------------------------------------------------|
E|---------------------------------------------------------------------------------|
                        
E|------------13---15--12--13--12---------------------------------------------15---------|
B|------------10---------------------15--13------18--17--18--17--15-----16/17----17------|
G|---7b9r7~-----------------------------------14--------------------17-------------------|
D|---------------------------------------------------------------------------------------|
A|---------------------------------------------------------------------------------------|
E|---------------------------------------------------------------------------------------|

E|----------------15b17r15---------20----------------------------------------------|
B|---15-------15---------------13--------------------------------------------------|
G|-------17------------------------------------------------------------------------|
D|---------------------------------------------------------------------------------|
A|---------------------------------------------------------------------------------|
E|---------------------------------------------------------------------------------|

C
Penso Infinitamente sem parar  
G
A verdade é transparente no mirar  
Dm               F
Da tua retina, minha menina  
C                        G
Me diz como não te amar  
  
  Dm            F         C   F  C  F
Eu Amo Mais Você Do Que Eu                                
  Dm            F         C   F  C  F  (2x)
Eu Amo Mais Você Do Que Eu                           
  
( C  F  C  F  C )
Acordes para:

    0 comentários

      mostrar mais comentários

      Conseguiu tocar?

      76tocaram1ainda não

      Grave um vídeo tocando Eu Amo Mais Você e mande pra gente!

      00:00 / 00:00
      outros vídeos desta música
      repetirqualidadeautomática
      Outro vídeos desta música
        00:00 / 00:00
        automática
        OK