Cifra Club

Blues da Piedade

Cazuza

Cifra: Versão 2 (violão e guitarra)
tom: E
(intro)  B7  E   G   A  E

   (baixo inicial)       (guitarra inicial)
                         B7        E     G            A        E
                       e|-2-------|---2----------------5-5-x-x--7-7-x-x-|
                       b|-4-------|-5-4----------------5-5-x-x--9-9-x-x-|
G |------------------| g|-2-------|-4-2--------2-------6-6-x-x--9-9-x-x-|
D |-----0-2-0---5--2-| d|-4-------|-2-4----2h4---4-2---7-7-x-x--9-9-x-x-|
A |-0-2-------3------| a|-2-------|---2----------------7-7-x-x--7-7-x-x-|
E |------------------| e|---------|--------------------5-5-x-x----------|

E
   agora eu vou cantar pros miseráveis
G
  que vagam pelo mundo, derrotados
A
  dessas sementes mal plantadas
      B7
que já nascem com caras de abortadas
E
  pra pessoas de alma bem pequena
    C
remoendo pequenos problemas
A                                    E
  querendo sempre aquilo que não tem
                              C
pra quem vê a luz, mas não ilumina suas mini-certezas
A                              E
  vive contando dinheiro e não muda quando é lua cheia.

A                    E -> E|-----------|
  pra que não sabe amar   b|-4/5fb\3\2-|
A                                          E   ->  B|----15-13~-|
  fica esperando alguém que caiba nos seu sonho    g|-13--------|
      A
como varizes que vão aumentando
       B7
como insetos em volta da lâmpada.

G          F#
vamos pedir piedade
A          E
senhor, piedade
G                F#         E
pra essa gente careta e covarde
G          F#
vamos pedir piedade
A          E
senhor, piedade
A                                       E     (solo base 1) E   G   A   E
  lhes dê grandeza e um pouco de coragem.

(solo 1)
   E                                    G
E |-16-13----------------------------------------------------|
B |-------15-13--------------------------------------16r-16r-|
G |-------------15-13b----15-15-13b------------14-16---------|
D |--------------------14----------14----14-16---------------|
A |----------------------------------------------------------|
E |----------------------------------------------------------|

  A                           E
E |----------------------------------------------------------------------|
B |-16r--14r-----------------------16b-----------------------------------|
G |-----------16r--14r-------------15b--14-------------16-14-------------|
D |---------------------17--14r------------16-14-14-14-------16-14-16-14-|
A |----------------------------------------------------------------------|
E |----------------------------------------------------------------------|

E
  quero cantar só para pessoas
C
  que tão no mundo e perderam a viagem
A
  quero cantar o blues
         E
com o pastor e o bumbo na praça.

vamos pedir piedade
             C
pois há um incêndio sobre a chuva rala
A
  somos iguais em desgraça
       B7
vamos cantar o blues da piedade.

G         F#
   vamos pedir piedade
A        E
 senhor, piedade
G                F#          E
 pra essa gente careta e covarde
 G         F#
 vamos pedir piedade
 A           E
 senhor, piedade
A                                   E     (solo base 2) E  G  A  E E  G  A  B7
lhes dê grandeza e um pouco de coragem.

(solo 2)
  E           G                       A                   E
E |-4------------------------------------12b-12b-14b-16b--14b-12b-12b--14b-12b-12b-------------
B |-5--5---5~----9-10-12b---14-12-10-----------------------------------------------15-14-12----
G |-4----4---------------------------9~-----------------------------------------------------15-
D |--------------------------------------------------------------------------------------------
A |--------------------------------------------------------------------------------------------
E |--------------------------------------------------------------------------------------------

           E                  G                       A                                   B7
---------|--------------------14b--14-----------------------------------------------------14/15r-
-16r-16r-|-------------------------14--17-15------17-15-------17-17--15-15--13-13--11-11---------
-15r-15r-|-15b---------------------15-------17-15-------17-15------------------------------------
---------|-----17-15----14-----------------------------------------------------------------------
---------|-----------17--------------------------------------------------------------------------
---------|---------------------------------------------------------------------------------------

-14/15r--14/15r---15b--15b-|
---------------------------|
---------------------------|
---------------------------|
---------------------------|
---------------------------|

A                    E
  pra que não sabe amar
A                                         E   -> b|-15r-13r~-|
fica esperando alguém que caiba nos seu sonho    g|----------|
      A
como varizes que vão aumentando
       B7
como insetos em volta da lâmpada.

G          F#
vamos pedir piedade
A          E
senhor, piedade
G                F#         E
pra essa gente careta e covarde
G          F#
vamos pedir piedade
A          E      A
senhor, piedade
                       E
lhes dê um pouco de coragem.

E     G     A                        E
ha............ lhes dê um pouco de coragem.
E     G     A                                          E
ha............ lhes dê grandeza e um pouco de coragem. éh..!
Composição de Cazuza / Roberto Frejat
Colaboração e revisão:
  • Renan Santos
56.995 exibições
    • ½ Tom
    • A
    • Bb
    • B
    • C
    • Db
    • D
    • Eb
    • E
    • F
    • F#
    • G
    • Ab
  • Adicionar à lista

    0 comentários

    Ver todos os comentários
    00:00 / 00:00
    Outros vídeos desta música
    Repetir Qualidade Automático
    Outros vídeos desta música
    00:00 / 00:00
    Automático

    Cifra Club Pro

    Aproveite o Cifra Club com benefícios exclusivos e sem anúncios
    Cifra Club Pro
    Aproveite o Cifra Club com benefícios exclusivos e sem anúncios
    OK