Cifra Club

El tren

Celso Piña

Cifra: Principal (violão e guitarra)
Selo Cifra Club: esta cifra foi revisada para atender aos critérios oficiais da nossa Equipe de Qualidade.
tom: D
E|----------------------------------------------|
B|----------------------------------------------|
G|-----0-0-0--2/4-2/4--0--2/4-2/4--2-4-2-4-2-0--|
D|-0-2------------------------------------------|
A|----------------------------------------------|
E|----------------------------------------------|

E|----------------------------------------------|
B|----0-0-0--1/3-1/3--0--1/3-1/3--0-2-4-2-4-2-0-|
G|----0-0-0--2/4-2/4--0--2/4-2/4--0-3-5-3-5-3-0-|
D|-0-2------------------------------------------|
A|----------------------------------------------|
E|----------------------------------------------|

E|------0------------------------------------------|
B|-3--------3---1----3---1----0---1---0---------0--|
G|----------------------------------------2--------|
    Ma--ña--na--pal--nor--te--al--pa--so--del--tren

E|-------------------------------------------------|
B|-------------------------------------------------|
G|------0----0----2----4---4----4---2---4---2----0-|
D|-0-----------------------------------------------|
    se--va--mi,a--mor--ci---to--con--e--lla--mei--ré
Outros vídeos desta música
    3 exibições
      • ½ Tom
      • A
      • Bb
      • B
      • C
      • Db
      • D
      • Eb
      • E
      • F
      • F#
      • G
      • Ab
    • Adicionar à lista

    Afinação da cifra

    Afinador online

      0 comentários

      Ver todos os comentários

      Conseguiu tocar?

      0Tocaram0Ainda não

      Grave um vídeo tocando El tren e nos envie!

      Toque também

      1. Imagem do artista Café TacvbaEres Café Tacvba
      2. Imagem do artista La Sonora DinamitaAmor de Mis Amores La Sonora Dinamita
      3. Imagem do artista El Gran SilencioCírculo de amor El Gran Silencio
      4. Imagem do artista Control MacheteDe Amores Perros Control Machete

      Entre para o Cifra Club PRO

      Tenha acesso a benefícios exclusivos no App e no Site

      • Chega de anúncios

      • Badges exclusivas

      • Mais recursos no app do Afinador

      • Atendimento Prioritário

      • Aumente seu limite de lista

      • Ajude a produzir mais conteúdo

      Cifra Club Pro

      Aproveite o Cifra Club com benefícios exclusivos e sem anúncios
      Cifra Club Pro
      Aproveite o Cifra Club com benefícios exclusivos e sem anúncios
      Ops (: Contenido disponible sólo en portugués.
      OK