Cifra Club

Aprenda

Garçom, Me Ajude

Cezar e Paulinho

Cifra: Principal (violão e guitarra)
tom: D
[Intro] D  G  A
        Bm  G  A

E|------------------------------------------|
B|------------------------------------------|
G|--------------0-2-4/6-4-4-4-2-0-----------|
D|---0-2-4-2h4--2-4-5/7-5-5-5-4-2--0--------|
A|-0---------------------------------4------|
E|------------------------------------------|

E|------------------------------------------|
B|------------------------------------------|
G|--------------0-2-4/6-4-4-4-2-0----------2|
D|---0-2-4-2h4--2-4-5/7-5-5-5-4-2--0---0-2--|
A|-0---------------------------------4------|
E|------------------------------------------|

[Primeira Parte]

D
  O tempo vai passando
F#m
    Eu não me acostumo
Em            
    É difícil pra mim
          A
Viver sem ela

D 
  As lembranças de nós dois
F#m
    Estão em todo lugar
Em
   No meu pensamento
                  A
Onde quer que eu vá

[Pré-Refrão]

Bm                  G          D
   Sentado aqui nessa mesa de bar
Bm               G          D  A/C#
   Olhando os casais a namorar
Bm               G               D
   Aqui a gente sempre se encontrou
         Em       G              A
E foi aqui que a gente se apaixonou

[Refrão]

             D
Garçom, me ajude
      G                  A 
Traga outra cerveja pra mim
                 D
Pra lembrar de quem
        G             A
Quem ficava comigo aqui

             D
Garçom, me ajude
       G                    A
Me prometa o que vou lhe pedir
             G
Se ela aparecer por aqui
         F#m
Imediatamente, me ligue
                              G
Mas, se estiver com outro alguém
    A          D      
Garçom, chore por mim

[Solo] G  A  Bm  G  A

E|------------------------------------------|
B|------------------------------------------|
G|--------------0-2-4/6-4-4-4-2-0-----------|
D|---0-2-4-2h4--2-4-5/7-5-5-5-4-2--0--------|
A|-0---------------------------------4------|
E|------------------------------------------|

E|------------------------------------------|
B|------------------------------------------|
G|--------------0-2-4/6-4-4-4-2-0-----------|
D|---0-2-4-2h4--2-4-5/7-5-5-5-4-2-----------|
A|-0----------------------------------------|
E|------------------------------------------|

E|------------------------------------------|
B|------------------------------------------|
G|-9--9--7-7-6-6-4-4-2-4--------------------|
D|-11-11-9-9-7-7-5-5-4-5--------------------|
A|------------------------------------------|
E|------------------------------------------|

[Pré-Refrão]

Bm                  G          D
   Sentado aqui nessa mesa de bar
Bm               G          D  A/C#
   Olhando os casais a namorar
Bm               G               D
   Aqui a gente sempre se encontrou
         Em       G              A
E foi aqui que a gente se apaixonou

[Refrão]

             D
Garçom, me ajude
      G                  A 
Traga outra cerveja pra mim
                 D
Pra lembrar de quem
        G             A
Quem ficava comigo aqui

             D
Garçom, me ajude
       G                    A
Me prometa o que vou lhe pedir
             G
Se ela aparecer por aqui
         F#m
Imediatamente, me ligue
                              G
Mas, se estiver com outro alguém
    A          D      
Garçom, chore por mim
                              G
Mas, se estiver com outro alguém
    A          D      
Garçom, chore por mim
Compositor não encontrado.
Colaboração e revisão:
  • Thiago Almeida
70 exibições
    • ½ Tom
    • A
    • Bb
    • B
    • C
    • Db
    • D
    • Eb
    • E
    • F
    • F#
    • G
    • Ab
  • Adicionar à lista

    0 comentários

    Ver todos os comentários
    00:00 / 00:00
    Outros vídeos desta música
    Repetir Qualidade Automático
    Outros vídeos desta música
    00:00 / 00:00
    Automático

    Cifra Club Pro

    Aproveite o Cifra Club com benefícios exclusivos e sem anúncios
    Cifra Club Pro
    Aproveite o Cifra Club com benefícios exclusivos e sem anúncios
    OK