Cifra Club

Perfume Garden

The Chameleons

Cifra: Principal (violão e guitarra)
Selo Cifra Club: esta cifra foi revisada para atender aos critérios oficiais da nossa Equipe de Qualidade.
tom: A
Guitar 1
E|---------------------------------------------------------------------------|
B|---------------------------------------------------------------------------|
G|---------------------------------------------------------------------------|
D|-7-7-7-7-7-7-7-0-2-2-2-2-2-2-2--------------------------------------------| 2x
A|-5-5-5-5-5-7-7-0-4-4-2-5-5-4-4--------------------------------------------|
E|---------------------------------------------------------------------------|
PM .............................

Guitar 2
E|---------------------------------------------------------------------------|
B|--9-10------12-14-12-----9-10----------------------------------------------|
G|-------9-11-----------11------9-11-----------------------------------------|
D|-----------------------------------7-9-11----------------------------------|
A|---------------------------------------------------------------------------|
E|---------------------------------------------------------------------------|


[Verse]

E|---------------------------------------------------------------------------|
B|---------------------------------------------------------------------------|
G|-13-| }-----11-}-----8-}-----9-}-----8-}----9-}-----8-}----------------------|
D|----| }7x------}3x-----}4x-----}8x-----}3x----}2x-----}2x--------------------| 4x
A|-11-| }-----9--}-----6-}-----7-}-----6-}----7-}-----6-}----------------------|
E|---------------------------------------------------------------------------|

[Pre-Chorus]
E|---------------------------------------------------------------------------|
B|---------------------------------------------------------------------------|
G|-13-| }-----11-}-----8-}-----13-]-----8-}------------------------------------|
D|----| }7x------}3x-----}4x------}8x-----}8x----------------------------------- 2x
A|-11-| }-----9--}-----6-}-----11-}-----6-}-------------------------------------
E|---------------------------------------------------------------------------|


[Chorus]

E|---------------------------------------------------------------------------|
B|---------------------------------------------------------------------------|
G|----------2-----------------------------------------------------------------|
D|-0--4-0-2---2----2----------2-0---------------------------------------------|
A|-------------0-4---4-5--4-2-------------------------------------------------| 4x
E|---------------------------------------------------------------------------|

[Bridge]

E|------------------------------------------------------------------------------|
B|------12-14--12----9-10--------------9-10------12-14--12----9-10--------------|
G|-9-11-----------11------9-11--------------9-11-----------11------9-11---------|
D|-----------------------------7-9-11-----------------------------------7-9-11--|
A|------------------------------------------------------------------------------|
E|------------------------------------------------------------------------------|

[Guitar 1]
E|---------------------------------------------------------------------------|
B|-6-6-6-6-6-6-6--6-6-6-6-6-6-6--4-4-4-4-4-4-4-------------------------------|
G|-7-7-7-7-7-7-7--9-9-9-9-9-9-9--6-6-6-6-6-6-6-------------------------------|
D|---------------------------------------------------------------------------| 5x
A|---------------------------------------------------------------------------|
E|---------------------------------------------------------------------------|
PM..............  .............  .............

[Guitar 2]
E|---------------------------------------------------------------------------|
B|---------------------------------------------------------------------------|
G|-------------------------9-8-----------------------------------------------|
D|-----------------------------9-11------------------------------------------| 3x
A|---------------------------------------------------------------------------|
E|---------------------------------------------------------------------------|

E|----------------------------------------------------------------------------|
B|-----7----------5--------7--------9----------7------------------------------|
G|---6---6------6---6----8---8----8---8------8---8---8------------------------|
D|-7-------7--7-------s9--------9-------9--9-------9--------------------------| 2x
A|----------------------------------------------------------------------------|
E|----------------------------------------------------------------------------|

[Outro]
E|------------------------------------------------------------|
B|------------------------------------------------------------|
G|-13-| }-----16-}-----18-}-------------------------------------| 2x
D|----| }8x------}4x------}4x-----------------------------------|
A|-11-| }-----14-}-----16-}-------------------------------------|
E|------------------------------------------------------------|

E|---------------------------------------7-----------------------|
B|-5-5-5-5-5-5----9----------------------5-----------------------|
G|-6-6-6-6-6-6----8-8-8-8-8-8---9---8----6-----------------------|
D|-7--------------9-9-9-9-9-9-----9---9--7-----------------------| 6x
A|---------------------------------------------------------------|
E|---------------------------------------------------------------|
Outros vídeos desta música
    16 exibições
      • ½ Tom
      • A
      • Bb
      • B
      • C
      • Db
      • D
      • Eb
      • E
      • F
      • F#
      • G
      • Ab
    • Adicionar à lista

    Afinação da cifra

    Afinador online

      0 comentários

      Ver todos os comentários

      Entre para o Cifra Club PRO

      Tenha acesso a benefícios exclusivos no App e no Site

      • Chega de anúncios

      • Badges exclusivas

      • Mais recursos no app do Afinador

      • Atendimento Prioritário

      • Aumente seu limite de lista

      • Ajude a produzir mais conteúdo

      Cifra Club Pro

      Aproveite o Cifra Club com benefícios exclusivos e sem anúncios
      Cifra Club Pro
      Aproveite o Cifra Club com benefícios exclusivos e sem anúncios
      Ops (: Contenido disponible sólo en portugués.
      OK