Notificações Amigos pendentes

      Charlie Brown Jr.

      Te Levar

      498.647 exibições
      Tom: C
      Intro - (Thiago): (4x)
      
      H.N      . . .           . . .
      
      E|-------------------------------------------------|
      B|-------------------------------------------------|
      G|--7-7----7---------------7-----------------------|
      D|--7-7--7---7------7-7--7---7---4-4-x-x-5-5-5-----|
      A|--5-5-------------7-7----------4-4-x-x-5-5-5-----|
      E|------------------5-5----------2-2-x-x-3-3-3-----|
      
      
      Intro Riff - (Marcão):
      
      
      E|--------------------------------------------------------------------|
      B|--------------------------------------------------------------------|
      G|---11-11/12-11--9-9-9/11-7-x-7-7----11-11/12-11--9-9-9/11-7--14\----|
      D|---------------------------x----------------------------------------|
      A|----9--9/10-9---7-7-7/-9-5-x-5-5-----9--9/10-9---7-7-7/-9-5--12\----|
      E|--------------------------------------------------------------------|
      
      
      Primeira Parte - (Thiago):
      
      P.M. .    . .    .
      
      E|------------------------------|
      B|------------------------------|
      G|-----7------------------------|
      D|-----7------7----4--5--5-5----| (3x)
      A|-5-5-5------7----4--5--5-5----|
      E|--------5-5-5--2-2--3--3-3----|
      
      
      E|-----------------------------------|
      B|-----------------------------------|
      G|-7-7-x-x---------------------------|
      D|-7-7-x-x--7-7-x-x--4-4-x-x--5--5-5-|
      A|-5-5-x-x--7-7-x-x--4-4-x-x--5--5-5-|
      E|----------5-5-x-x--2-2-x-x--3--3-3-|
      
      
      Primeira Parte - (Marcão):
      
      P.M. .    . .    .
      
      E|------------------------------|
      B|------------------------------|
      G|-----7------------------------|
      D|-----7------7----4--5--5-5----|
      A|-5-5-5------7----4--5--5-5----|
      E|--------5-5-5--2-2--3--3-3----|
      
      
      E|---------------------------------------|
      B|---------------------------------------|
      G|-----11----9-------12--14-19/----------|
      D|---------------------------------------|
      A|-----9-----7-------10--12-17/----------|
      E|---------------------------------------|
      
      
      E|---------------------------------|
      B|---------------------------------|
      G|-----11----9-------7-7-7~--------|
      D|---------------------------------|
      A|-----9-----7-------5-5-5~--------|
      E|---------------------------------|
      
      
      E|---------------------------------------------------|
      B|---------------------------------------------------|
      G|--11--11-11-11/9-9-9-9-9/11-11-11-11-11/12-12-12~--|
      D|---------------------------------------------------|
      A|--9---9--9--9/7--7-7-7-7/9--9--9--9--9/10--10-10~--|
      E|---------------------------------------------------|
      
      
      Refrão:
      
      Repete Intro - (Thiago): (6x)
      
      H.N      . . .           . . .
      
      E|-------------------------------------------------|
      B|-------------------------------------------------|
      G|--7-7----7---------------7-----------------------|
      D|--7-7--7---7------7-7--7---7---4-4-x-x-5-5-5-----|
      A|--5-5-------------7-7----------4-4-x-x-5-5-5-----|
      E|------------------5-5----------2-2-x-x-3-3-3-----|
      
      
      Repete Intro c/ Intro Riff - (Marcão):
      
      H.N      . . .           . . .
      
      E|-------------------------------------------------|
      B|-------------------------------------------------|
      G|--7-7----7---------------7-----------------------|
      D|--7-7--7---7------7-7--7---7---4-4-x-x-5-5-5-----| (4x)
      A|--5-5-------------7-7----------4-4-x-x-5-5-5-----|
      E|------------------5-5----------2-2-x-x-3-3-3-----|
      
      
      Intro Riff :
      
      
      E|--------------------------------------------------------------------|
      B|--------------------------------------------------------------------|
      G|---11-11/12-11--9-9-9/11-7-x-7-7----11-11/12-11--9-9-9/11-7--14\----|
      D|---------------------------x----------------------------------------|
      A|----9--9/10-9---7-7-7/-9-5-x-5-5-----9--9/10-9---7-7-7/-9-5--12\----|
      E|--------------------------------------------------------------------|
      
      
      Repete Primeira Parte - 4x (duas guitarras juntas)
      
      Repete Refrão - 4x (duas guitarras juntas)
      
      Ponte: (duas guitarras)
      
      H.N   . . . . . .     . . . . . .
      
      E|-------------------------------------------------|
      B|------------7-7-------------7-7------------------|
      G|--7-----7-7-------------7-7----------------------|
      D|--7-7-7-----------7-7-7--------4-4-x-x-5-5-5-----| (3x)
      A|--5---------------7------------4-4-x-x-5-5-5-----|
      E|------------------5------------2-2-x-x-3-3-3-----|
      
      
      E|---------------------------------------------------|
      B|---------------------------------------------------|
      G|--11--11-11-11/9-9-9-9-9/11-11-11-11-11/12-12-12~--|
      D|---------------------------------------------------|
      A|--9---9--9--9/7--7-7-7-7/9--9--9--9--9/10--10-10~--|
      E|---------------------------------------------------|
      
      
      Repete Refrão sem intro riff (Marcão) - 4x (duas guitarras juntas)
      
      Segunda Parte:
      
      Base - (Thiago):
      
      
      E|------------------------------------------------|
      B|------------------------------------------------|
      G|-5--5--5--5--5-5-5/10-10-10-10-10-10-10/--------|
      D|-5--5--5--5--5-5-5/10-10-10-10-10-10-10/--------|
      A|-3--3--3--3--3-3-3/8--8--8--8--8--8--8/---------|
      E|------------------------------------------------|
      
      
      E|------------------------------------------------|
      B|------------------------------------------------|
      G|-/5--5--5--5--5-5-5/10-10-10-10-10-10-10/-------|
      D|-/5--5--5--5--5-5-5/10-10-10-10-10-10-10/-------|
      A|-/3--3--3--3--3-3-3/8--8--8--8--8--8--8/--------|
      E|------------------------------------------------|´
      
      
      E|------------------------------------------------|
      B|------------------------------------------------|
      G|-5--5--5--5--5-5-5/10-10-10-10-10-10-10/--------|
      D|-5--5--5--5--5-5-5/10-10-10-10-10-10-10/--------|
      A|-3--3--3--3--3-3-3/8--8--8--8--8--8--8/---------|
      E|------------------------------------------------|
      
      
      E|------------------------------------------------|
      B|------------------------------------------------|
      G|-/5--5--5--5--5-5-5/10-10-10-10-10-10-10--------|
      D|-/5--5--5--5--5-5-5/10-10-10-10-10-10-10--------|
      A|-/3--3--3--3--3-3-3/8--8--8--8--8--8--8---------|
      E|------------------------------------------------|´
      
      
      Riff - (Marcão):
      
      
      E|----------------------------------------------------------------------------|
      B|----------------------------------------------------------------------------|
      G|-----------10-10-10\9-9-9\7-7-----12-12-12\10-10-10\9-9-9\7-7-7\5-5/7-5/9~--|
      D|----------------------------------------------------------------------------|
      A|------------8--8--8\7-7-7\5-5-----10-10-10\8--8--8\-7-7-7\5-5-5\3-3/5-3/7~--|
      E|----------------------------------------------------------------------------|
      
      
      E|-----------------------------------------------------------------------------|
      B|-----------------------------------------------------------------------------|
      G|-5~---10~-----10-10-10\9-9-9\7-7-7\5-5-5-5--12-12-12\10-10-10\9-9-9\7-7-7-7--|
      D|-5~---10~--------------------------------------------------------------------|
      A|-3~---8~-------8--8--8\7-7-7\5-5-5\3-3-3-3--10-10-10\8--8--8\-7-7-7\5-5-5-5--|
      E|-----------------------------------------------------------------------------|
      
      
      Repete Refrão - 4x (duas guitarras juntas)
      
      Repete Intro c/ final: (duas guitarras juntas)
      
      Intro c/ Final - (Marcão):
      
      
      E|--------------------------------------------------------------------|
      B|--------------------------------------------------------------------|
      G|---11-11/12-11--9-9-9/11-7-x-7-7----11-11/12-11--9-9-9/11-7--14\----|
      D|---------------------------x----------------------------------------|
      A|----9--9/10-9---7-7-7/-9-5-x-5-5-----9--9/10-9---7-7-7/-9-5--12\----|
      E|--------------------------------------------------------------------|
      
      
      E|---------------------------------------------------------------------------------|
      B|---------------------------------------------------------------------------------|
      G|---11-11/12-11--9-9-9/11-7-x-7-7----11-11/12-11--9-9-9/11-7--14-14/16-14--19~----|
      D|---------------------------x-----------------------------------------------------|
      A|----9--9/10-9---7-7-7/-9-5-x-5-5-----9--9/10-9---7-7-7/-9-5--12-12/14-12--17~----|
      E|---------------------------------------------------------------------------------|
      
        Composição: ChorãoColaboração e revisão:
        • hrickguitar
        • DiegoGuitar
        • Anderson Santos
        • luizfernando
        • +5

        Comentários 21

        140 .
        • vya vya: Em 14/03/2016 19:41

          D, A, Fm# G Vai acompanhando a letra galera!

        • gabriel.santosribeiro gabriel.santosribeiro: Em 26/07/2015 18:49

          Essa afinaçao da cifra ae esta meio errada, a afinaçao original da musica e meio tom abaixo!

        • Ailton Jose Ailton Jose: Em 20/07/2015 11:32

          rsrsrsr realmente, cade Tudo??? rsrsrsrsrs acho que levaram daqui, rsrsrsrsrs

        • johnny johnny: Em 18/03/2015 11:57

          Cadê tudo?

        • abdielmagnus abdielmagnus: Em 19/03/2014 21:09

          cade a cifra?

        • luis.caipu luis.caipu: Em 17/12/2013 12:24

          Cadê a letra da música?

        • Erick Erick: Em 19/08/2013 23:08

          armonico é vc tocar com o dedo de leve em cima do traste

        • Erick Erick: Em 19/08/2013 23:07

          facin

        • biankk biankk: Em 10/08/2013 12:01

          difícil

        • kurtcomau kurtcomau: Em 12/07/2013 21:16

          Tem vídeo aula no Tv Cifras, só procurar no youtube, eu queria poder mandar a URL mas ñ é possível

        140 cancelar

        conseguiu tocar?

        • •••

        covers

        Grave um vídeo tocando Te Levar e mande pra gente!

        Ex.: http://www.youtube.com/watch?v=0IvSvIwGdwk
        ver covers de outras músicas »
        0:00 / 0:00

        Capítulos

          1 versão de bateria exibições contribuição e correção
          2 versões de Guitar Proformatodownloadscontribuição
          play/pausefechar subir/descer velocidade
          6ª corda E5ª corda A4ª corda D3ª corda G2ª corda B1ª corda E
            acordes
            publicidade
            fechar
            ok