Cifra Club

Te Levar

Charlie Brown Jr.

Cifra: Principal
exibições 533.966
Tom: C
Intro - (Thiago): (4x)

H.N      . . .           . . .
E|-------------------------------------------------|
B|-------------------------------------------------|
G|--7-7----7---------------7-----------------------|
D|--7-7--7---7------7-7--7---7---4-4-x-x-5-5-5-----|
A|--5-5-------------7-7----------4-4-x-x-5-5-5-----|
E|------------------5-5----------2-2-x-x-3-3-3-----|

Intro Riff - (Marcão):

E|--------------------------------------------------------------------|
B|--------------------------------------------------------------------|
G|---11-11/12-11--9-9-9/11-7-x-7-7----11-11/12-11--9-9-9/11-7--14\----|
D|---------------------------x----------------------------------------|
A|----9--9/10-9---7-7-7/-9-5-x-5-5-----9--9/10-9---7-7-7/-9-5--12\----|
E|--------------------------------------------------------------------|

Primeira Parte - (Thiago):

P.M. .    . .    .
E|------------------------------|
B|------------------------------|
G|-----7------------------------|
D|-----7------7----4--5--5-5----| (3x)
A|-5-5-5------7----4--5--5-5----|
E|--------5-5-5--2-2--3--3-3----|

E|-----------------------------------|
B|-----------------------------------|
G|-7-7-x-x---------------------------|
D|-7-7-x-x--7-7-x-x--4-4-x-x--5--5-5-|
A|-5-5-x-x--7-7-x-x--4-4-x-x--5--5-5-|
E|----------5-5-x-x--2-2-x-x--3--3-3-|

Primeira Parte - (Marcão):

P.M. .    . .    .
E|------------------------------|
B|------------------------------|
G|-----7------------------------|
D|-----7------7----4--5--5-5----|
A|-5-5-5------7----4--5--5-5----|
E|--------5-5-5--2-2--3--3-3----|

E|---------------------------------------|
B|---------------------------------------|
G|-----11----9-------12--14-19/----------|
D|---------------------------------------|
A|-----9-----7-------10--12-17/----------|
E|---------------------------------------|

E|---------------------------------|
B|---------------------------------|
G|-----11----9-------7-7-7~--------|
D|---------------------------------|
A|-----9-----7-------5-5-5~--------|
E|---------------------------------|

E|---------------------------------------------------|
B|---------------------------------------------------|
G|--11--11-11-11/9-9-9-9-9/11-11-11-11-11/12-12-12~--|
D|---------------------------------------------------|
A|--9---9--9--9/7--7-7-7-7/9--9--9--9--9/10--10-10~--|
E|---------------------------------------------------|

Refrão:

Repete Intro - (Thiago): (6x)

H.N      . . .           . . .
E|-------------------------------------------------|
B|-------------------------------------------------|
G|--7-7----7---------------7-----------------------|
D|--7-7--7---7------7-7--7---7---4-4-x-x-5-5-5-----|
A|--5-5-------------7-7----------4-4-x-x-5-5-5-----|
E|------------------5-5----------2-2-x-x-3-3-3-----|

Repete Intro c/ Intro Riff - (Marcão):

H.N      . . .           . . .
E|-------------------------------------------------|
B|-------------------------------------------------|
G|--7-7----7---------------7-----------------------|
D|--7-7--7---7------7-7--7---7---4-4-x-x-5-5-5-----| (4x)
A|--5-5-------------7-7----------4-4-x-x-5-5-5-----|
E|------------------5-5----------2-2-x-x-3-3-3-----|

Intro Riff :

E|--------------------------------------------------------------------|
B|--------------------------------------------------------------------|
G|---11-11/12-11--9-9-9/11-7-x-7-7----11-11/12-11--9-9-9/11-7--14\----|
D|---------------------------x----------------------------------------|
A|----9--9/10-9---7-7-7/-9-5-x-5-5-----9--9/10-9---7-7-7/-9-5--12\----|
E|--------------------------------------------------------------------|

Repete Primeira Parte - 4x (duas guitarras juntas)

Repete Refrão - 4x (duas guitarras juntas)

Ponte: (duas guitarras)

H.N   . . . . . .     . . . . . .
E|-------------------------------------------------|
B|------------7-7-------------7-7------------------|
G|--7-----7-7-------------7-7----------------------|
D|--7-7-7-----------7-7-7--------4-4-x-x-5-5-5-----| (3x)
A|--5---------------7------------4-4-x-x-5-5-5-----|
E|------------------5------------2-2-x-x-3-3-3-----|

E|---------------------------------------------------|
B|---------------------------------------------------|
G|--11--11-11-11/9-9-9-9-9/11-11-11-11-11/12-12-12~--|
D|---------------------------------------------------|
A|--9---9--9--9/7--7-7-7-7/9--9--9--9--9/10--10-10~--|
E|---------------------------------------------------|

Repete Refrão sem intro riff (Marcão) - 4x (duas guitarras juntas)

Segunda Parte:

Base - (Thiago):

E|------------------------------------------------|
B|------------------------------------------------|
G|-5--5--5--5--5-5-5/10-10-10-10-10-10-10/--------|
D|-5--5--5--5--5-5-5/10-10-10-10-10-10-10/--------|
A|-3--3--3--3--3-3-3/8--8--8--8--8--8--8/---------|
E|------------------------------------------------|

E|------------------------------------------------|
B|------------------------------------------------|
G|-/5--5--5--5--5-5-5/10-10-10-10-10-10-10/-------|
D|-/5--5--5--5--5-5-5/10-10-10-10-10-10-10/-------|
A|-/3--3--3--3--3-3-3/8--8--8--8--8--8--8/--------|
E|------------------------------------------------
E|------------------------------------------------|
B|------------------------------------------------|
G|-5--5--5--5--5-5-5/10-10-10-10-10-10-10/--------|
D|-5--5--5--5--5-5-5/10-10-10-10-10-10-10/--------|
A|-3--3--3--3--3-3-3/8--8--8--8--8--8--8/---------|
E|------------------------------------------------|

E|------------------------------------------------|
B|------------------------------------------------|
G|-/5--5--5--5--5-5-5/10-10-10-10-10-10-10--------|
D|-/5--5--5--5--5-5-5/10-10-10-10-10-10-10--------|
A|-/3--3--3--3--3-3-3/8--8--8--8--8--8--8---------|
E|------------------------------------------------
Riff - (Marcão):

E|----------------------------------------------------------------------------|
B|----------------------------------------------------------------------------|
G|-----------10-10-10\9-9-9\7-7-----12-12-12\10-10-10\9-9-9\7-7-7\5-5/7-5/9~--|
D|----------------------------------------------------------------------------|
A|------------8--8--8\7-7-7\5-5-----10-10-10\8--8--8\-7-7-7\5-5-5\3-3/5-3/7~--|
E|----------------------------------------------------------------------------|

E|-----------------------------------------------------------------------------|
B|-----------------------------------------------------------------------------|
G|-5~---10~-----10-10-10\9-9-9\7-7-7\5-5-5-5--12-12-12\10-10-10\9-9-9\7-7-7-7--|
D|-5~---10~--------------------------------------------------------------------|
A|-3~---8~-------8--8--8\7-7-7\5-5-5\3-3-3-3--10-10-10\8--8--8\-7-7-7\5-5-5-5--|
E|-----------------------------------------------------------------------------|

Repete Refrão - 4x (duas guitarras juntas)

Repete Intro c/ final: (duas guitarras juntas)

Intro c/ Final - (Marcão):

E|--------------------------------------------------------------------|
B|--------------------------------------------------------------------|
G|---11-11/12-11--9-9-9/11-7-x-7-7----11-11/12-11--9-9-9/11-7--14\----|
D|---------------------------x----------------------------------------|
A|----9--9/10-9---7-7-7/-9-5-x-5-5-----9--9/10-9---7-7-7/-9-5--12\----|
E|--------------------------------------------------------------------|

E|---------------------------------------------------------------------------------|
B|---------------------------------------------------------------------------------|
G|---11-11/12-11--9-9-9/11-7-x-7-7----11-11/12-11--9-9-9/11-7--14-14/16-14--19~----|
D|---------------------------x-----------------------------------------------------|
A|----9--9/10-9---7-7-7/-9-5-x-5-5-----9--9/10-9---7-7-7/-9-5--12-12/14-12--17~----|
E|---------------------------------------------------------------------------------|
Acordes para:

    0 comentários

      mostrar mais comentários

      Conseguiu tocar?

      49tocaram2ainda não

      Grave um vídeo tocando Te Levar e mande pra gente!

      00:00 / 00:00
      outros vídeos desta música
      repetirqualidadeautomática
      Outro vídeos desta música
        00:00 / 00:00
        automática
        OK