Cifra Club

Te Levar

Charlie Brown Jr.

Cifra: Principal (violão e guitarra)
exibições 559.960
Tom: F# (forma dos acordes no tom de G) Afinação: Eb Ab Db Gb Bb Eb
[Intro] D5  A5  F#5  G5 
        D5  A5  F#5  G5 
        D5  A5  F#5  G5 
        D5  A5  F#5  G5 

(Guitarra Base)

H.N      . . .           . . .
E|---------------------------------------------------|
B|---------------------------------------------------|
G|--7-7----7---------------7-------------------------|
D|--7-7--7---7------7-7--7---7---4-4-x-x-5-5-5-------| (2x)
A|--5-5-------------7-7----------4-4-x-x-5-5-5-------|
E|------------------5-5----------2-2-x-x-3-3-3-------|

(Guitarra Solo)

E|---------------------------------------------------|
B|---------------------------------------------------|
G|---11-11/12-11--9-9-9/11-7-x-7-7-------------------|
D|---------------------------x-----------------------|
A|----9--9/10-9---7-7-7/-9-5-x-5-5-------------------|
E|---------------------------------------------------|

E|---------------------------------------------------|
B|---------------------------------------------------|
G|-11-11/12-11--9-9-9/11-7--14\----------------------|
D|---------------------------------------------------|
A|--9--9/10-9---7-7-7/-9-5--12\----------------------|
E|---------------------------------------------------|

[Primeira Parte]

(Guitarra Base)

P.M. .    . .    .
E|---------------------------------------------------|
B|---------------------------------------------------|
G|-----7---------------------------------------------|
D|-----7------7----4--5--5-5-------------------------| (3x)
A|-5-5-5------7----4--5--5-5-------------------------|
E|--------5-5-5--2-2--3--3-3-------------------------|

E|---------------------------------------------------|
B|---------------------------------------------------|
G|-7-7-x-x-------------------------------------------|
D|-7-7-x-x--7-7-x-x--4-4-x-x--5--5-5-----------------|
A|-5-5-x-x--7-7-x-x--4-4-x-x--5--5-5-----------------|
E|----------5-5-x-x--2-2-x-x--3--3-3-----------------|

(Guitarra Solo)

P.M. .    . .    .
E|---------------------------------------------------|
B|---------------------------------------------------|
G|-----7---------------------------------------------|
D|-----7------7----4--5--5-5-------------------------|
A|-5-5-5------7----4--5--5-5-------------------------|
E|--------5-5-5--2-2--3--3-3-------------------------|

E|---------------------------------------------------|
B|---------------------------------------------------|
G|--11-x-9---x-12/14/19-------x--11-x-9--x---7-7-7~--|
D|-----x-----x----------------x-----x----x-----------|
A|--9--x--7--x--10/12/17------x---9-x--7-x---5-5-5~--|
E|---------------------------------------------------|

E|---------------------------------------------------|
B|---------------------------------------------------|
G|--11--11-11-11/9-9-9-9-9/11-11-11-11-11/12-12-12~--|
D|---------------------------------------------------|
A|--9---9--9--9/7--7-7-7-7/9--9--9--9--9/10--10-10~--|
E|---------------------------------------------------|

D5            A5    F#5  G5
 Tive pensando  em me mudar
D5          A5       F#5  G5
 Sem te deixar pra trás, yeah
D5           A5     F#5  G5
 Resolvi pensar em nós, yeah
D5    A5   F#5    G5
 Vou te levar daqui

[Refrão]

(Guitarra Base e Solo)

H.N      . . .           . . .
E|---------------------------------------------------|
B|---------------------------------------------------|
G|--7-7----7---------------7-------------------------|
D|--7-7--7---7------7-7--7---7---4-4-x-x-5-5-5-------| (4x)
A|--5-5-------------7-7----------4-4-x-x-5-5-5-------|
E|------------------5-5----------2-2-x-x-3-3-3-------|

    D5      A5   F#5 G5
Vou   te levar, yeah
      D5     A5  F#5 G5
Te levar daqui yeah
    D5      A5   F#5 G5
Vou   te levar, yeah
      D5     A5  F#5 G5
Te levar daqui yeah

( D5  A5  F#5  G5 )
( D5  A5  F#5  G5 )

(Guitarra Base)

H.N      . . .           . . .
E|---------------------------------------------------|
B|---------------------------------------------------|
G|--7-7----7---------------7-------------------------|
D|--7-7--7---7------7-7--7---7---4-4-x-x-5-5-5-------| (2x)
A|--5-5-------------7-7----------4-4-x-x-5-5-5-------|
E|------------------5-5----------2-2-x-x-3-3-3-------|

(Guitarra Solo)

E|---------------------------------------------------|
B|---------------------------------------------------|
G|---11-11/12-11--9-9-9/11-7-x-7-7-------------------|
D|---------------------------x-----------------------|
A|----9--9/10-9---7-7-7/-9-5-x-5-5-------------------|
E|---------------------------------------------------|

E|---------------------------------------------------|
B|---------------------------------------------------|
G|-11-11/12-11--9-9-9/11-7--14\----------------------|
D|---------------------------------------------------|
A|--9--9/10-9---7-7-7/-9-5--12\----------------------|
E|---------------------------------------------------|

[Primeira Parte]

D5       A5      F#5      G5
 Aquele tempo ficou pra trás
D5       A5      F#5  G5
 Eu nunca fui feliz ali
D5           A5     F#5  G5
 Resolvi pensar em nós, yeah
D5    A5   F#5    G5
 Vou te levar daqui

[Refrão]

    D5      A5   F#5 G5
Vou   te levar, yeah
      D5     A5  F#5 G5
Te levar daqui yeah
    D5      A5   F#5 G5
Vou   te levar, yeah
      D5     A5  F#5 G5
Te levar daqui yeah

[Ponte]

(Guitarra Base e Solo)

H.N   . . . . . .     . . . . . .
E|---------------------------------------------------|
B|------------7-7-------------7-7--------------------|
G|--7-----7-7-------------7-7------------------------|
D|--7-7-7-----------7-7-7--------4-4-x-x-5-5-5-------| (3x)
A|--5---------------7------------4-4-x-x-5-5-5-------|
E|------------------5------------2-2-x-x-3-3-3-------|

E|---------------------------------------------------|
B|---------------------------------------------------|
G|-7--7----------------------------------------------|
D|-7--7-----7--7-----4--4-----5---5-5----------------|
A|-5--5-----7--7-----4--4-----5---5-5----------------|
E|----------5--5-----2--2-----3---3-3----------------|

E|---------------------------------------------------|
B|---------------------------------------------------|
G|--11--11-11-11/9-9-9-9-9/11-11-11-11-11/12-12-12~--|
D|---------------------------------------------------|
A|--9---9--9--9/7--7-7-7-7/9--9--9--9--9/10--10-10~--|
E|---------------------------------------------------|

               D5                A5  
Mantenho a história de luz de glória
                       F#5             G5
Mas só deixa eu te contar o que eu passei por lá
                            D5                      A5  
Mas eu ainda fico impressionado com as coisas da cidade
         F#5              G5
Aqueles mano se foram chegaram antes se foram
          D5                         A5 
Pra onde foram ninguém sabe ninguém faz
 F#5  G5
Anos e anos da correria faz leva e traz
D5                   A5                    F#5  G5
Anos e anos da correria faz leva e traz, yeah

[Refrão]

    D5      A5   F#5 G5
Vou   te levar, yeah
      D5     A5  F#5 G5
Te levar daqui yeah
    D5      A5   F#5 G5
Vou   te levar, yeah
      D5     A5  F#5 G5
Te levar daqui yeah

[Segunda Parte]

(Guitarra Base)

E|---------------------------------------------------|
B|---------------------------------------------------|
G|-5--5--5--5--5--5--5/10--10--10--10--10--10--10----|
D|-5--5--5--5--5--5--5/10--10--10--10--10--10--10----|
A|-3--3--3--3--3--3--3/8---8---8---8---8---8---8-----|
E|---------------------------------------------------|

E|---------------------------------------------------|
B|---------------------------------------------------|
G|-5--5--5--5--5--5--5/10--10--10--10--10--10--10----|
D|-5--5--5--5--5--5--5/10--10--10--10--10--10--10----|
A|-3--3--3--3--3--3--3/8---8---8---8---8---8---8-----|
E|---------------------------------------------------|

E|---------------------------------------------------|
B|---------------------------------------------------|
G|-5--5--5--5--5--5--5/10--10--10--10--10--10--10----|
D|-5--5--5--5--5--5--5/10--10--10--10--10--10--10----|
A|-3--3--3--3--3--3--3/8---8---8---8---8---8---8-----|
E|---------------------------------------------------|

E|---------------------------------------------------|
B|---------------------------------------------------|
G|-5--5--5--5--5--5--5/10--10--10--10--10--10--10----|
D|-5--5--5--5--5--5--5/10--10--10--10--10--10--10----|
A|-3--3--3--3--3--3--3/8---8---8---8---8---8---8-----|
E|---------------------------------------------------|

(Guitarra Solo)

E|---------------------------------------------------|
B|---------------------------------------------------|
G|---------------------------10-10-10\9-9-9\7-7------|
D|---------------------------------------------------|
A|----------------------------8--8--8\7-7-7\5-5------|
E|---------------------------------------------------|

E|---------------------------------------------------|
B|---------------------------------------------------|
G|-12-12-12\10-10-10\9-9-9\7-7-7\5-5/7-5/9~----------|
D|---------------------------------------------------|
A|-10-10-10\8--8--8\-7-7-7\5-5-5\3-3/5-3/7~----------|
E|---------------------------------------------------|

 C5               
Resolvi pensar em nós
 F5
Vou te levar daqui

E|---------------------------------------------------|
B|---------------------------------------------------|
G|----------------------10-10-10\9-9-9\7-7-7\5-5-5-5-|
D|---------------------------------------------------|
A|-----------------------8--8--8\7-7-7\5-5-5\3-3-3-3-|
E|---------------------------------------------------|

E|---------------------------------------------------|
B|---------------------------------------------------|
G|-12-12-12\10-10-10\9-9-9\7-7-7-7-------------------|
D|---------------------------------------------------|
A|-10-10-10\8--8--8\-7-7-7\5-5-5-5-------------------|
E|---------------------------------------------------|

[Refrão]

    D5      A5   F#5 G5
Vou   te levar, yeah
      D5     A5  F#5 G5
Te levar daqui yeah
    D5      A5   F#5 G5
Vou   te levar, yeah
      D5     A5  F#5 G5
Te levar daqui yeah

[Final] D5  A5  F#5  G5 
        D5  A5  F#5  G5 
        D5  A5  F#5  G5 
        D5  A5  F#5  G5 

(Guitarra Base)

H.N      . . .           . . .
E|---------------------------------------------------|
B|---------------------------------------------------|
G|--7-7----7---------------7-------------------------|
D|--7-7--7---7------7-7--7---7---4-4-x-x-5-5-5-------| (2x)
A|--5-5-------------7-7----------4-4-x-x-5-5-5-------|
E|------------------5-5----------2-2-x-x-3-3-3-------|

(Guitarra Solo)

E|---------------------------------------------------|
B|---------------------------------------------------|
G|---11-11/12-11--9-9-9/11-7-x-7-7-------------------|
D|---------------------------x-----------------------|
A|----9--9/10-9---7-7-7/-9-5-x-5-5-------------------|
E|---------------------------------------------------|

E|---------------------------------------------------|
B|---------------------------------------------------|
G|-11-11/12-11--9-9-9/11-7--14\----------------------|
D|---------------------------------------------------|
A|--9--9/10-9---7-7-7/-9-5--12\----------------------|
E|---------------------------------------------------|
Acordes para:

    0 comentários

    mostrar mais comentários

    Conseguiu tocar?

    48 tocaram 6 ainda não

    Grave um vídeo tocando Te Levar e mande pra gente!

    00:00 / 00:00
    outros vídeos desta música
    repetir qualidade Automático
    Outros vídeos desta música
    00:00 / 00:00
    Automático
    OK