Cifra Club

How Long

Charlie Puth

Cifra: Principal (violão e guitarra)
exibições 45.992
Tom: C#m
[Intro]

Ooh, yeah

[Riff - Intro]

E|---x-----x-----x-------x-----x-----x-----x-------x---|
B|---x-----x-----x-------x-----x-----x-----x-------x---|
G|---x-----x-----x-------x-----x-----x-----x-------x---|
D|---x-----x-----x-------x-----x-----x-----x-------x---|
A|-4-x-4-2-x-2-0-x-0-2-2-x-3-4-x-4-2-x-2-0-x-0---2-3---|
E|---x-----x-----x-------x-----x-----x-----x---4-----4-|

[Primeira Parte]

I'll admit, I was wrong
What else can I say, girl?
Can't you blame my head
And not my heart?

I was drunk, I was gone
That don't make it right but
I promise there were
No feelings involved

[Riff - Primeira Parte]

[1ª estrofe da primeira parte]
E|---x-----x-----x-------x-----x-----x-----x-------x---|
B|---x-----x-----x-------x-----x-----x-----x-------x---|
G|---x-----x-----x-------x-----x-----x-----x-------x---|
D|---x-----x-----x-------x-----x-----x-----x-------x---|
A|-4-x-4-2-x-2-0-x-0-2-2-x-3-4-x-4-2-x-2-0-x-0---2-3---|
E|---x-----x-----x-------x-----x-----x-----x---4-----4-|

[2ª estrofe da primeira parte]
E|---x-----x-----x-------x-----x-----x-----x-----------|
B|---x-----x-----x-------x-----x-----x-----x-----------|
G|---x-----x-----x-------x-----x-----x-----x-----------|
D|---x-----x-----x-------x-----x-----x-----x-----------|
A|-4-x-4-2-x-2-0-x-0-2-2-x-3-4-x-4-2-x-2-0-x-0---------|
E|---x-----x-----x-------x-----x-----x-----x---4-4-3---|

[Pré-Refrão]

F#m7(9)
        She said:
      G#m7          F#m7(9)
Boy, tell me honestly
                          G#m7  C#7
Was it real or just for show?       Yeah
F#m7(9)                 G#m7      A7M
        She said: Save your apologies
                     G#7(4)  G#7
Baby, I just gotta know

[Dedilhado Pré-refrão]

Parte 1
      F#m7(9)            G#m7
E|-4-4-x------4-x-4---2-2-x------2-x-2------|
B|-2-2-x------2-x-2---4-4-x------4-x-4------|
G|-2-2-x------2-x-2---4-4-x------4-x-4------|
D|-----x--------x---------x--------x--------|
A|-----x--4-----x---------x--------x--------|
E|-2---x----2---x-----4---x--4-4---x--------|

Parte 2
      F#m7(9)            G#m7     C#7
E|-4-4-x------4-x-4---2-2-x----4--4-x-------|
B|-2-2-x------2-x-2---4-4-x----6--6-x-------|
G|-2-2-x------2-x-2---4-4-x----4--4-x-------|
D|-----x--------x---------x---------x-------|
A|-----x--4-----x---------x----4----x-4-----|
E|-2---x----2---x-----4---x--4------x-------|

Parte 3
      F#m7(9)  G#m7  A7M  G#7(4)  G#7
E|-4--------2-----4----4-------4------------|
B|-2--------4-----5----4-------4------------|
G|-2--------4-----6—---6-------5------------|
D|-2--------x-----6----4-------4------------|
A|-4--------x-----0----6-------6------------|
E|-2--------4----------4-------4------------|
   ↓        ↓     ↓    ↓       ↓

[Refrão]


How long has this been going on?
You've been creeping 'round on me
While you're calling me baby

     C#m7      B        A6   B
How long has this been going on?
            C#m7          B
You've been acting so shady
           A6             G#7(13-)
I've been feeling it lately baby

C#m7  B  A6  B  C#m7  B  A6  G#7(13-)

[Dedilhado Refrão]

[Primeira estrofe do refrão]

E|-----------------x------x-------x-------x-------x----|
B|---------------x-x----x-x-----x-x-----x-x-----x-x----|
G|---------------x-x----x-x-----x-x-----x-x-----x-x----|
D|---------------x-x----x-x-----x-x-----x-x-----x-x----|
A|-4-4-2-2-0-0-2---x--4---x-4-2---x-2-0---x-0-----x-2--|
E|-----------------x------x-------x-------x---4---x----|

[Segunda estrofe do refrão]

Parte 1
       C#m7      B         A6         B
E|-----x---------x---------x----------x-----|
B|---5-x-5-----4-x-4-----5-x-5------4-x-4---|
G|---4-x-4-----4-x-4-----6-x-6------4-x-4---|
D|---6-x-6-----4-x-4-----4-x-4------4-x-4---|
A|-4---x---4-----x---------x----------x-----|
E|-----x-----7---x---7-5---x---5--7---x---7-|

Parte 2
       C#m7      B         A6         G#7(13-)
E|-----x---------x---------x----------x-----|
B|---5-x-5-----4-x-4-----5-x-5------5-x-5---|
G|---4-x-4-----4-x-4-----6-x-6------5-x-5---|
D|---6-x-6-----4-x-4-----4-x-4------4-x-4---|
A|-4---x---4-----x---------x----------x-----|
E|-----x-----7---x---7-5---x---5--4---x---4-|

[Segunda Parte]

I'll admit, it's my fault
But you gotta believe me
When I say it only happened once

I tried and I tried
But you'll never see that
You're the only I wanna love, ooh, yeah

[Riff Segunda Parte]

[1ª estrofe da segunda parte]
E|---x-----x------------x-----x-----x-------x----------|
B|---x-----x------------x-----x-----x-------x----------|
G|---x-----x------------x-----x-----x-------x----------|
D|---x-----x------------x-----x-----x-------x----------|
A|-4-x-4-2-x-2-0------4-x-4-2-x-2-0-x-0---2-3----------|
E|---x-----x------------x-----x-----x---4-----4--------|

[2ª estrofe da segunda parte]
E|---x-----x-----x-------x-----x-----x-----x-----------|
B|---x-----x-----x-------x-----x-----x-----x-----------|
G|---x-----x-----x-------x-----x-----x-----x-----------|
D|---x-----x-----x-------x-----x-----x-----x-----------|
A|-4-x-4-2-x-2-0-x-0-2-2-x-3-4-x-4-2-x-2-0-x-0---------|
E|---x-----x-----x-------x-----x-----x-----x---4-4-3---|


[Pré-Refrão]

F#m7(9)
        She said:
      G#m7          F#m7(9)
Boy, tell me honestly
                          G#m7  C#7
Was it real or just for show?       Yeah
F#m7(9)                 G#m7      A7M
        She said: Save your apologies
                     G#7(4)  G#7
Baby, I just gotta know

[Refrão]

How long has this been going on?
You've been creeping 'round on me
While you're calling me baby

     C#m7      B        A6   B
How long has this been going on?
            C#m7          B
You've been acting so shady
           A6             G#7(13-)
I've been feeling it lately baby

C#m7  B  A6  B  C#m7  B

 A6                G#7(13-)
How long has this been going on
 C#m7  B  A6
Baby?
     B
You gotta go tell me now

C#m7  B  A6  G#7(13-)

[Pré-Refrão]

F#m7(9)
        She said:
      G#m7          F#m7(9)
Boy, tell me honestly
                          G#m7  C#7
Was it real or just for show?       Yeah
F#m7(9)                 G#m7      A7M
        She said: Save your apologies
                     G#7(4)  G#7
Baby, I just gotta know

[Refrão]

How long has this been going on?
              C#m7              B
You've been creeping 'round on me
              A6           G#7(13-)
While you're calling me baby
     C#m7      B        A6   B
How long has this been going on?
            C#m7          B
You've been acting so shady
           A6             G#7(13-)
I've been feeling it lately baby

     C#m7      B        A6   B
How long has this been going on?
              C#m7              B
You've been creeping 'round on me
 A6              G#7(13-)
How long has it been going on, baby?
     C#m7      B        A6   B
How long has this been going on?
(You gotta go tell me now)
            C#m7          B
You've been acting so shady
           A6             G#7(13-)  C#m7
I've been feeling it lately      baby
Acordes para:
    Composição: Charlie PuthColaboração e revisão:
    • Caico Antunes
    • Camila Lovato
    • Natália Sandim

    0 comentários

      mostrar mais comentários

      Conseguiu tocar?

      0tocaram0ainda não

      Grave um vídeo tocando How Long e mande pra gente!

      00:00 / 00:00
      outros vídeos desta música
      repetirqualidadeAutomático
      Outro vídeos desta música
        00:00 / 00:00
        Capítulos
        • Tocando a música
        • Apresentação / Equipamentos
        • Tocando Introdução
        • Riff Introdução
        • Dicas Primeira Parte
        • Tocando Primeira Parte
        • Riff Primeira Parte - 1ª Estrofe
        • Riff Primeira Parte - 2ª Estrofe
        • Acordes Pré-refrão
        • Tocando Pré-refrão
        • Dedilhado Pré-refrão
        • Pré-refrão - Parte 1 de 3
        • Pré-refrão - Parte 2 de 3
        • Pré-refrão - Parte 3 de 3
        • Acordes do Refrão
        • Tocando Refrão
        • Refrão - 1ª Estrofe (riff)
        • Refrão - 2ª Estrofe (dedilhado)
        • Refrão - 2ª Estrofe - Parte 1 de 2
        • Refrão - 2ª Estrofe - Parte 2 de 2
        • Dicas Segunda Parte
        • Tocando Segunda Parte
        • Riff Segunda Parte
        • Dicas repetição
        • Tocando trecho repetição
        • Dicas Último Pré-refrão
        • Tocando Pré-refrão
        • Dicas finais
        • Tocando Refrão final
        • Encerramento
        OK