Cifra Club

The Red

Chevelle

Cifra: Principal (violão e guitarra)
Selo Cifra Club: esta cifra foi revisada para atender aos critérios oficiais da nossa Equipe de Qualidade.
tom: E
Tuning: Down 1 1/2 Steps, (C#,F#,B,E,G#,C#) (Low to High)

PM = palm mute
p = pick up
() = ghost note (still ringing)
<> = natural harmonics
 = slide
... = keep playing until it's time to move on.
x = no note value (mute strings)

Note: I have looked over almost all of the tabs on mxtabs.net and found they are
all pretty good attempts at the way this song is played.  However, when I saw the video of them playing this live on kilborn, I noticed parts were wrong and also found the right way to play the song for the best accuracy.  I hate to add to the sea of 'the red' tabs out there, but I just think this one will work out best.  I took a look at c0z420's kilborn tab and just basically revised it and added a few things I caught with both my eyes and ears.  You can probably get this music video on kazaa or somewhere else if you want to verify.  If you are going to rate this tab lower than a 5, make sure to add a comment, and also watch the video before doing so.

Tip: I added the stroke directions (the way pete does it) to help with accuracy. 
Play the whole song with the same style stokes. (u=up d=down)

Intro: 
C#|-----------------------------------------------------|
G#|-----------------------------------------------------|
E |-----------------------------------------------------|
B |-------------5--5-5-5-5--------------10--------------|X2
F#|-7--7-9-7-0--5--5-5-5-5--7--7-9-7-0--10--10-10-10-10-|
C#|-0--0-0-0-0--3--3-0-3-0--0--0-0-0-0---8---8--0--8--0-|
    d  d u d u  d  d u d u  d  d u d u   d   d  u  d  u

1st Verse:         
|----------------------------------------------------
|----------------------------------------------------
|----------------------------------------------------
|-------------5-5(5)-5(5)----------------------------
|--7---9-7-0--5-5(5)-5(5)-7-7-9-7-0--10--10-10-10-10-
|--0---0-0-0--3-3p0--3p0--0-0-0-0-0---8---8--0--8--0-
PM .   . . .  . . .  . .  . . . . .   .   .  .  .  . 
                                                

-----------5-5(5)-5(5)----------------------------- 
7-7-9-7-0--5-5(5)-5(5)-7-7-9-7-0--10--10-10-10-10--
0-0-0-0-0--3-3p0--3p0--0-0-0-0-0---8---8--0--8--0--
. .   . .  . . .  . .  . .   . .   .   .  .  .  .

-----------5-5(5)-5(5)----------------------------- 
7-7-9-7-0--5-5(5)-5(5)-7-7-9-7-0--10--10-10-10-10--
0-0-0-0-0--3-3p0--3p0--0-0-0-0-0---8---8--0--8--0--
. .   . .  . . .  . .  . . . . .   .   .  .  .  .

-----------5-5(5)-5(5)---------9-10-|
7-7-9-7-0--5-5(5)-5(5)-7-7-9-7-9-10-|
0-0-0-0-0--3-3p0--3p0--0-0-0-0-7--8-|
. .   . .  . . .  . .  . .     

                                                   
Chorus: not all the strokes are noted, add some upstroke emphasis sometimes.
|-------------------------------------------
|-------------------------------------------
|------------------------------7--7-7-7--7--
|-2---2-2-2-2--5---5-5-5-5-5---7--7-7-7--7--
|-2---2-2-2-2--5---5-5-5-5-5---5--5-5-5--5--
|-0---0-0-0-0--3---3-3-3-3-3--(5)-------(5)-

----------------------------------------------------|
---------------------------------------------4-4-4--|
------------------------------7--7-7-7--7--2-4-4-4--|
-2---2-2-2-2--5---5-5-5-5-5---7--7-7-7--7--2-4-4-4--|
-2---2-2-2-2--5---5-5-5-5-5---5--5-5-5--5--0-2-2-2--|
-0---0-0-0-0--3---3-3-3-3-3--(5)-------(5)----------|

Play intro riff 2x

Verse 2: Slight variation of verse 1 and longer.

B |------------5-5(5)-5(5)----------------------------- 
F#|-7-7-9-7-0--5-5(5)-5(5)-7-7-9-7-0--10--10-10-10-10--
C#|-0-0-0-0-0--3-3p0--3p0--0-0-0-0-0---8---8--0--8--0--
    . . . . .  . . .  . .  . . . . .   .   .  .  .  .

-----------5-5(5)-5(5)----------------------------- 
7-7-9-7-0--5-5(5)-5(5)-7-7-9-7-0--10--10-10-10-10--
0-0-0-0-0--3-3p0--3p0--0-0-0-0-0---8---8--0--8--0--
. .   . .  . . .  . .  . .   . .   .   .  .  .  .

-----------5-5(5)-5(5)----------------------------- 
7-7-9-7-0--5-5(5)-5(5)-7-7-9-7-0--10--10-10-10-10--
0-0-0-0-0--3-3p0--3p0--0-0-0-0-0---8---8--0--8--0--
. .   . .  . . .  . .  . . . . .   .   .  .  .  .

-----------5-5(5)-5(5)----------------------------- 
7-7-9-7-0--5-5(5)-5(5)-7-7-9-7-0--10--10-10-10-10--
0-0-0-0-0--3-3p0--3p0--0-0-0-0-0---8---8--0--8--0--
. .   . .  . . .  . .  . .   . .   .   .  .  .  .

-----------5-5(5)-5(5)----------------------------- 
7-7-9-7-0--5-5(5)-5(5)-7-7-9-7-0--10--10-10-10-10--
0-0-0-0-0--3-3p0--3p0--0-0-0-0-0---8---8--0--8--0--
. .   . .  . . .  . .  . . . . .   .   .  .  .  .

-----------5-5(5)-5(5)----------------------------- 
7-7-9-7-0--5-5(5)-5(5)-7-7-9-7-0--10--10-10-10-10--
0-0-0-0-0--3-3p0--3p0--0-0-0-0-0---8---8--0--8--0--
. .   . .  . . .  . .  . .   . .   .   .  .  .  .

-----------5-5(5)-5(5)----------------------------- 
7-7-9-7-0--5-5(5)-5(5)-7-7-9-7-0--10--10-10-10-10--
0-0-0-0-0--3-3p0--3p0--0-0-0-0-0---8---8--0--8--0--
. .   . .  . . .  . .  . . . . .   .   .  .  .  .

-----------5-5(5)-5(5)---------9-10-
7-7-9-7-0--5-5(5)-5(5)-7-7-9-7-9-10-
0-0-0-0-0--3-3p0--3p0--0-0-0-0-7--8-
. .   . .  . . .  . .  . .     

Chorus again

Bridge: (tremolo pick notes) (Wah optional)
|--------------------------------------|------------|
|--------------------------------------|--------<9>-|
|--------------------------------------|--------<9>-| 
|-()999...912p0-------------------9~-|------------|
|-----------------5777(<7>)...-57----|-777...-----|
|--------------------------------------|------------|

Throw in some random harmoncs too.  Where I ended is just the 
very beginning and ending of the solo, make up the rest yourself,
that is what a solo is! (waste of time to figure out exactly what he's playing)

Chorus here again x2

Outro
|-----------------------------------------------------|
|-----------------------------------------------------|
|-----------------------------------------------------|
|------------5-5-5-5-5----------------10--------------|X4
|-7-7-9-7-0--5-5-5-5-5--7-7--9--7-0---10-10-10-10--10-|
|-0-0-0-0-0--3-3-0-3-0--0-0--0--0-0----8--8--0--8---0-|

|------------------xxx------xxx---------------------|
|------------------xxx------xxx---------------------|
|-------(<8>)------xxx------xxx---------------------|
|-10-10-xxx--10-10-xxx------xxx---------------------|
|-10-10-xxx--10-10-xxx--9-9-xxx-9-9--------------7--|
|--8--8-xxx---8--8------7-7-xxx-7-7-<7>-<7>-<7>--0--|
                                     .   .   .
(I'm not sure if he means to play the harmonics or not, but they do come out)

--Just the bass plays to the end, or play the intro again

I think the live version adds a little more flavor to this song.

letra:

They say freak when your singled out
and the red, well it filters through
Say lay down, the threat is real
When his sight goes red again
Seeing red again
Seeing red again
This change he won't contain
Slip away to clear your mind
When asked who made it show
The truth he gives into most
Say lay down, the threat is real
When his sight goes red again
Say lay down, the threat is real
When his sight goes red again
Say lay down, the threat is real
When his sight goes red again
Seeing red again
Seeing red again
Seeing red again
Seeing red again
Seeing red again
Seeing red again
Seeing red again
Seeing reeeeeeeedddddddddd!
They say freak when your singled out
and the red it filters through
Outros vídeos desta música
    12.350 exibições
    • Simplificar cifra
      • ½ Tom
      • A
      • Bb
      • B
      • C
      • Db
      • D
      • Eb
      • E
      • F
      • F#
      • G
      • Ab
    • Adicionar à lista

    Afinação da cifra

    Afinador online

      0 comentários

      Ver todos os comentários

      Entre para o Cifra Club PRO

      Tenha acesso a benefícios exclusivos no App e no Site

      • Chega de anúncios

      • Badges exclusivas

      • Mais recursos no app do Afinador

      • Atendimento Prioritário

      • Aumente seu limite de lista

      • Ajude a produzir mais conteúdo

      Cifra Club Pro

      Aproveite o Cifra Club com benefícios exclusivos e sem anúncios
      Cifra Club Pro
      Aproveite o Cifra Club com benefícios exclusivos e sem anúncios
      OK