Cifra Club

Hanging On

Cheyenne Kimball

Cifra: Principal (violão e guitarra)
tom: C (forma dos acordes no tom de B) Capotraste na 1ª casa
CAPO ON 1ST FRET

Intro
|---0---0---0-0-0-0-0---0---0-0-0-0---|
|---0---0---0-0-0-0-0---0---0-0-0-0---|
|---4---4---x-1-x-1-1---1---1-2-2-2---|x2
|---4---4---x-2-x-2-2---2---2-2-2-2---|
|---2---2---x-2-x-2-2---2---2-0-0-0---|
|-------------------------------------|

Verse 1
|---0---0---0-0-0-0-0---0---0-0-0-0---|
|---0---0---0-0-0-0-0---0---0-0-0-0---|
|---4---4---x-1-x-1-1---1---1-2-2-2---|x8
|---4---4---x-2-x-2-2---2---2-2-2-2---|
|---2---2---x-2-x-2-2---2---2-0-0-0---|
|-------------------------------------|
I've had a bad day
And nothing ever seems to go my way
I've got a heartache
don't wanna think about it
And every time I try to smile I cry so
I'll just hide my face
Get out of my way
don't wanna talk about it

Pre-chorus
|---------0-----0------|
|---------0-----0------|
|---------1-----2------|
|---4-x8--2-x4--2-x4---|
|---4-----2-----0------|
|---2------------------|
And I'll be fine
I just need some time

Chorus
|-------0---0---0---0---0---0---0---|
|-------0---0---0---0---0---0---0---|
|-------2---1---4---6---2---1---4---|
|---4---2---2---4---6---2---2---4---|
|---4---0---2---2---4---0---2---2---|
|---2-------------------------------|
I'm hanging on today
and nothing's gonna stop me anyway
I'm holding on cause I'm strong
and I'm the only one that can make a change
|-------0---0---0-------0~------------|
|-------0---0---0-------0~------------|
|-------2---1---4-------2~------------|
|---4---2---2---4---4---2~------------|
|---4---0---2---2---4---0~------------|
|---2---------------2-----------------|
And I don't wanna fight
I gotta live my life
I'm gonna make it alright
I'm hanging on
And nothing's gonna stop me...

FILL
|---0---0---0-0-0-0-0---0---0-0-0-0---|
|---0---0---0-0-0-0-0---0---0-0-0-0---|
|---4---4---x-1-x-1-1---1---1-2-2-2---|x2
|---4---4---x-2-x-2-2---2---2-2-2-2---|
|---2---2---x-2-x-2-2---2---2-0-0-0---|
|-------------------------------------|
...anyway. no no no.

VERSE 2 [same as verse 1]
I went the wrong way
But I'm not lost it's a good mistake
I saw the day break
I'm gonna shout about it
Oh, and every time I turn around I find that
I'm alone again
I've had a bad day
I'm gonna laugh about it

PRE-CHORUS
And I'll be fine
I'm gonna be alright

CHORUS

BRIDGE
|------------------------------------------|
|------------------------------------------|
|------------------------------------------|
|---7777-666-7777-666-7777-666--99999999---|
|---7777-666-7777-666-7777-666--99999999---|
|---5555-444-5555-444-5555-444--77777777---|
And nothing's gonna stop me
[cheyenne doesn't play this part. her other guitarist does, but i decided to put it in anyway]
|---0-----0-------0-----0-------|
|-----4-----4---2---2-0---0-----|
|-------4-----4-------------4---|x2
|-------------------------------|
|-------------------------------|
|-------------------------------|
When I get lonely I feel like I'm floating
Nothing is real I'm above it all
|--------------------------------------------------|
|--------------------------------------------------|
|--------------------------------------------------|
|---7777-666-7777-666-7777-666--9999999999999999---|
|---7777-666-7777-666-7777-666--9999999999999999---|
|---5555-444-5555-444-5555-444--7777777777777777---|
I'm above it
I'm above it all

CHORUS

ENDING
|---0---0---0-0-0-0-0---0---0-0-0-0---|
|---0---0---0-0-0-0-0---0---0-0-0-0---|
|---4---4---x-1-x-1-1---1---1-2-2-2---|
|---4---4---x-2-x-2-2---2---2-2-2-2---|
|---2---2---x-2-x-2-2---2---2-0-0-0---|
|-------------------------------------|
I've had a bad day

just figure out the strumming for some parts. it shouldn't be so hard. if you have any 
corrections, just leave a comment and i'll see what i can do. have a great day, everyone.

ps. this is the version she plays on MTV overdrive.
00:00 / 00:00
Outros vídeos desta música
Repetir
Outros vídeos desta música
Composição de Chantal Kreviazuk / Cheyenne Kimball / Raine Maida
Colaboração e revisão:
  • Gina Camurugy
2.616 exibições
    • ½ Tom
    • A
    • Bb
    • B
    • C
    • Db
    • D
    • Eb
    • E
    • F
    • F#
    • G
    • Ab
  • Adicionar à lista

    0 comentários

    Ver todos os comentários

    Conseguiu tocar?

    0 Tocaram 0 Ainda não

    Grave um vídeo tocando Hanging On e nos envie!

    00:00 / 00:00

    Cifra Club Pro

    Aproveite o Cifra Club com benefícios exclusivos e sem anúncios
    Cifra Club Pro
    Aproveite o Cifra Club com benefícios exclusivos e sem anúncios
    OK