Cifra Club

Vumbora Amar

Chiclete Com Banana

Cifra: Principal (violão e guitarra)
exibições 37.784
Tom: D
Solo:

E|---------------------------2----|
A|-0-1-2-0-2-5-----0-1-2-0-2------|
D|--------------------------------|
G|--------------------------------|
B|--------------------------------|
E|--------------------------------|

E|--------------------------------|
A|-0-1-2-0-2-5-2-5-9-9-9----------|
D|--------------------------------|
G|--------------------------------|
B|--------------------------------|
E|--------------------------------|

E|--------------------------------|
A|-0-1-2-0-2-5-2-0-2-2-2----------|
D|--------------------------------|
G|--------------------------------|
B|--------------------------------|
E|--------------------------------|

Bm                   F#
O vento faz rendez-vous
                     Bm
No seu cabelo alinhado
                    F#       Bm
Acostumado com o meu embolado
                        F#      Bm
Acho que o passo é do seu sapato

Bm                 F#
Dona Naná tá danada
                 Bm
O santo dela desceu
                  F#
A jangada tá lavada
                 Bm
Entre nela mais eu

Bm          A
Vumbora amar
             Bm
Embora mais eu
           A
Vumbora amar
             Bm
embora mais eu   (bis)

Bm               F#
Eu deixaria a areia
              Bm
Coberta de você
                     F#
No seu cabelo enrolado
                     Bm
Leve um cacho de dendê

                        F#       Bm
Salte que o salto é do seu sapato
                          F#      Bm
Passe que o espaço é do seu cavalgo...
Acordes para:
    Composição: Alain Tavares / Carlinhos BrownColaboração e revisão:
    • Diêgo
    • Adolfo Bezerra

    0 comentários

    mostrar mais comentários

    Conseguiu tocar?

    4tocaram0ainda não

    Grave um vídeo tocando Vumbora Amar e mande pra gente!

    00:00 / 00:00
    outros vídeos desta música
    repetirqualidadeAutomático
    Outro vídeos desta música
      00:00 / 00:00
      OK