Cifra Club

Vumbora Amar

Chiclete Com Banana

Cifra: Principal (violão e guitarra)
Selo Cifra Club: esta cifra foi revisada para atender aos critérios oficiais da nossa Equipe de Qualidade.
tom: D
[Solo]

E|--------------------------------|
B|--------------------------------|
G|--------------------------------|
D|--------------------------------|
A|-0-1-2-0-2-5-----0-1-2-0-2------|
E|---------------------------2----|

E|--------------------------------|
B|--------------------------------|
G|--------------------------------|
D|--------------------------------|
A|-0-1-2-0-2-5-2-5-9-9-9----------|
E|--------------------------------|

E|--------------------------------|
B|--------------------------------|
G|--------------------------------|
D|--------------------------------|
A|-0-1-2-0-2-5-2-0-2-2-2----------|
E|--------------------------------|

E|--------------------------------|
B|-12-14-15-14-12-15-8-7----------|
G|--------------------------------|
D|--------------------------------|
A|--------------------------------|
E|--------------------------------|

E|--------------------------------|
B|-12-14-15-14-12-15-8-7----------|
G|--------------------------------|
D|--------------------------------|
A|--------------------------------|
E|--------------------------------|

E|--------------------------------|
B|-12-14-15-14-12-20-19-----------|
G|--------------------------------|
D|--------------------------------|
A|--------------------------------|
E|--------------------------------|

Bm                   F#
O vento faz rendez-vous
                     Bm
No seu cabelo alinhado
                    F#       Bm
Acostumado com o meu embolado
                        F#      Bm
Acho que o passo é do seu sapato

Bm                 F#
Dona Naná tá danada
                 Bm
O santo dela desceu
                  F#
A jangada tá lavada
                 Bm
Entre nela mais eu

Bm          A
Vumbora amar
             Bm
Embora mais eu
           A
Vumbora amar
             Bm
Embora mais eu   (bis)

Bm               F#
Eu deixaria a areia
              Bm
Coberta de você
                     F#
No seu cabelo enrolado
                     Bm
Leve um cacho de dendê

                        F#       Bm
Salte que o salto é do seu sapato
                          F#      Bm
Passe que o espaço é do seu cavalgo
Outros vídeos desta música
    61.283 exibições
      • ½ Tom
      • A
      • Bb
      • B
      • C
      • Db
      • D
      • Eb
      • E
      • F
      • F#
      • G
      • Ab
    • Adicionar à lista

    Afinação da cifra

    Afinador online

      0 comentários

      Ver todos os comentários

      Entre para o Cifra Club PRO

      Tenha acesso a benefícios exclusivos no App e no Site

      • Chega de anúncios

      • Badges exclusivas

      • Mais recursos no app do Afinador

      • Atendimento Prioritário

      • Aumente seu limite de lista

      • Ajude a produzir mais conteúdo

      Cifra Club Pro

      Aproveite o Cifra Club com benefícios exclusivos e sem anúncios
      Cifra Club Pro
      Aproveite o Cifra Club com benefícios exclusivos e sem anúncios
      OK