Cifra Club

Aprenda

A Praieira

Chico Science

Cifra: Principal (violão e guitarra)
tom: Bb
Intro:

  (Guitarra)         (Guitarra2 [2x])
E|------------------|--------8---------------8-----------------|
B|------------------|----------8-11-8-11h-13---11--------------|
G|------------------|--10h12----------------------10h-12-------|
D|------3-5---------|------------------------------------------|
A|--3-6-----3-6---5-|------------------------------------------|
E|----------------3-|------------------------------------------|

Verso: (Isso é o básico, durante a música existem algumas variações)
  (Parte1)                (Parte2)                (Parte3)
E|-8-x-x-8-x-7-x-7-7--|-8-x-x-8-x-11-x-11-x-|-8-x-8-8-x-6-----|
B|-8-x-x-8-x-7-x-7-7--|-8-x-x-8-x-11-x-11-x-|-8-x-8-8-x-6-----|
G|--------------------|---------------------|-------------8~--|
D|--------------------|---------------------|-----------------|
A|--------------------|---------------------|-----------------|
E|--------------------|---------------------|-----------------|

No caminho é que se vê, a praia melhor pra ficar Tenho a hora certa pra beber
Uma cerveja antes do almoço é muito bom, pra ficar pensando melhor

E eu piso onde quiser, você está girando melhor, garota
Na areia onde o mar chegou, a ciranda acabou de começar, e ela é !
E é praieira!!! Segura bem forte a mão
E é praieira !!! Vou lembrando a revolução, vou lembrando a Revolução
Mas há fronteiras nos jardins da razão

E na praia é que se vê, a areia melhor pra deitar
Vou dançar uma ciranda pra beber
Uma cerveja antes do almoço é muito bom, pra ficar pensando melhor

Você pisa onde quer
Que você se sente melhor
Na areia onde o mar chegou
A ciranda acabou de começar, e ela é !
E é praieira!!! Segura bem forte a mão
E é praieira !!! Vou lembrando a revolução, vou lembrando a Revolução
Mas há fronteiras nos jardins da razão

No caminho é que se vê, a praia melhor pra ficar Tenho a hora certa pra beber
Uma cerveja antes do almoço é muito bom, pra ficar pensando melhor.
Composição de Chico Science
Colaboração e revisão:
  • Marcos Filho
  • claudio marcos
83.060 exibições
    • ½ Tom
    • A
    • Bb
    • B
    • C
    • Db
    • D
    • Eb
    • E
    • F
    • F#
    • G
    • Ab
  • Adicionar à lista

    0 comentários

    Ver todos os comentários

    Conseguiu tocar?

    2 Tocaram 1 Ainda não

    Grave um vídeo tocando A Praieira e nos envie!

    00:00 / 00:00
    outros vídeos desta música
    repetir qualidade Automático
    Outros vídeos desta música
    00:00 / 00:00
    Automático

    Cifra Club Pro

    Aproveite o Cifra Club com benefícios exclusivos e sem anúncios
    Cifra Club Pro
    Aproveite o Cifra Club com benefícios exclusivos e sem anúncios
    OK