Cifra Club

Manguetown

Chico Science

Cifra: Principal (violão e guitarra)
Selo Cifra Club: esta cifra foi revisada para atender aos critérios oficiais da nossa Equipe de Qualidade.
tom: Em
[Intro] Em  G  Em  G 
        Em  G  Em  G 

[Tab - Riff Intro]

E|------------------------------------------|
B|------------------------------------------|
G|------------------------------------------| (3x)
D|-2--2---0---------------------------------|
A|------2-----------------------------------|
E|------------------------------------------|

E|------------------------------------------|
B|------------------------------------------|
G|------------------------------------------|
D|------------------------------------------|
A|---------2--------------------------------|
E|-0--0-3-----3--0--3-2---------------------|

Êêêê . . .
      
Ha ha ha . . .

[Primeira Parte]

[Tab - Riff Primeira Parte]

E|------------------------------------------|
B|------------------------------------------|
G|------------------------------------------|
D|------------------------------------------|
A|---------2--------------------------------|
E|-0--0-3-----3--0--3-2---------------------|

 Em                G 
Tô enfiado na lama
Em               G 
É um bairro sujo
        Em               G 
Onde os urubus têm casas
  Em                G 
E eu não tenho asas

       F#m 
Mas estou aqui em minha casa

Onde os urubus têm asas

 Em                G 
Vou pintando, segurando a parede
 Em                G 
No mangue do meu quintal 

[Refrão]

   Bm                      Em
Andando por entre os becos
   Bm                Em
Andando em coletivos
     Bm                     Em
Ninguém foge ao cheiro sujo
    Bm                Em
Da lama da Manguetown

   Bm                      Em
Andando por entre os becos
   Bm                Em
Andando em coletivos
     Bm                  Em
Ninguém foge à vida suja
     Bm                Em
Dos dias da Manguetown

[Solo]

   Em          G       Em          G      
E|------------------------------------------|
B|------------------------------------------|
G|--------------------------------------4-9~|
D|-----------------------5-7/9\7-5-7--7-----|
A|-----0p2h0---------5-7--------------------|
E|-0-3-------3-5-5/7------------------------|

   Em          G       Em          G      
E|------------------------------------------|
B|------------------------------------------|
G|------------------------------------------|
D|-----------------------5-7/9\7-5-7--------|
A|-----0p2h0---------5-7--------------------|
E|-0-3-------3-5-5/7------------------------|

[Segunda Parte]

      Em          G 
Esta noite sairei
       Em                        G        
Vou beber com meus amigos... Ha!
         Em                
E com as asas que os urubus
         G 
Me deram   ao dia
Em                G        Em     G
   Eu voarei por toda a periferia

        Em               
Vou sonhando com a mulher
        G      Em             
Que talvez eu possa encontrar
          G         Em
E ela também vai andar
      G             Em
Na lama do meu quintal Manguetown

[Refrão]

   Bm                      Em
Andando por entre os becos
   Bm                Em
Andando em coletivos
     Bm                     Em
Ninguém foge ao cheiro sujo
    Bm                Em
Da lama da Manguetown

   Bm                      Em
Andando por entre os becos
   Bm                Em
Andando em coletivos
     Bm                  Em
Ninguém foge à vida suja
     Bm                Em
Dos dias da Manguetown

( Em  G  Em  G )
( Em  G  Em  G )
( Em  G  Em  G )
( Em  G  Em  G )

[Refrão]

   Bm                      Em
Andando por entre os becos
   Bm                Em
Andando em coletivos
     Bm                     Em
Ninguém foge ao cheiro sujo
    Bm                Em
Da lama da Manguetown

   Bm                      Em
Andando por entre os becos
   Bm                Em
Andando em coletivos
     Bm                  Em
Ninguém foge à vida suja
     Bm                Em
Dos dias da Manguetown

[Final]

 Em      
Fui no mangue catá lixo
   Am7                  Bm           D 
Pegá caranguejo, conversar com urubu
 Em      
Fui no mangue catá lixo
   Am7                  Bm           D 
Pegá caranguejo, conversar com urubu
 Em      
Fui no mangue catá lixo
   Am7                  Bm           D 
Pegá caranguejo, conversar com urubu
 Em      
Fui no mangue catá lixo

Pegá caranguejo, conversar com urubu
Outros vídeos desta música
    73.909 exibições
      • ½ Tom
      • Am
      • Bbm
      • Bm
      • Cm
      • C#m
      • Dm
      • Ebm
      • Em
      • Fm
      • F#m
      • Gm
      • G#m
    • Adicionar à lista

    Afinação da cifra

    Afinador online

      0 comentários

      Ver todos os comentários

      Entre para o Cifra Club PRO

      Tenha acesso a benefícios exclusivos no App e no Site

      • Chega de anúncios

      • Badges exclusivas

      • Mais recursos no app do Afinador

      • Atendimento Prioritário

      • Aumente seu limite de lista

      • Ajude a produzir mais conteúdo

      Cifra Club Pro

      Aproveite o Cifra Club com benefícios exclusivos e sem anúncios
      Cifra Club Pro
      Aproveite o Cifra Club com benefícios exclusivos e sem anúncios
      Ops (: Contenido disponible sólo en portugués.
      OK