Cifra Club

Redbone

Childish Gambino

Cifra: Principal (violão e guitarra)
tom: Bb (forma dos acordes no tom de B) Afinação: Eb Ab Db Gb Bb Eb
[Intro] B  C#  D#m 
        B  C#  D#m 
        B  C#  D#m 
        B  C#  D#m 

E|------------------------------------------|
B|--11-9-7-6--------------------------------|
G|-----------6---6h8------------------------|
D|-------------8----------------------------|
A|------------------------------------------|
E|------------------------------------------|

E|--------9---------------------------------|
B|------7---9/11-------------9--------------|
G|--6-8----------------10-11---11-----------|
D|------------------------------------------|
A|------------------------------------------|
E|------------------------------------------|

E|--------------------------9---------------|
B|--11-9-7-6--------------7---9/11-9--------|
G|-----------6---6h8--6-8------------11-6h8-|
D|-------------8----------------------------|
A|------------------------------------------|
E|------------------------------------------|

[Primeira Parte]

 B       C#
Daylight
D#m            D#m
I wake up feeling like you won't 
  B       C#
Play right
D#m             D#m
I used to know but now, that shit don't 
B         C#
Feel right
D#m                      B   C#  D#m
It made me put away my pride

 B      C#
So long
 D#m            
You made a nigga wait for some
 B      C#
So long
 D#m                
You make it hard for a boy like that to 
  B        C#
Know wrong
D#m                            B       C#  D#m  
I'm wishing I could make this mine, oh

[Pré-Refrão]

        D#m       
If you want it, yeah
         G#m      
You can have it, oh, oh, oh
        Fm7(5-)       
If you need it, oooh
        D#m       
We can make it, oh
G#m      
If you want it
         A#7      
You can have it

[Refrão]

          B   C#
But stay woke
         D#m       
Niggas creepin'
           B      C#
They gon' find you
            D#m        
Gon' catch you sleepin' (oooh)
          B    C#
Now stay woke
         D#m       
Niggas creepin'
           B         C#       D#m
Now don't you close your eyes

[Segunda Parte]

 B       C#
Too late
 D#m             
You wanna make it right, but now it's 
 B       C#
Too late
 D#m              
My peanut butter chocolate cake with 
 B       C#
Kool-Aid
D#m                         B   C#  D#m  
I'm trying not to waste my time

[Pré-Refrão]

        D#m       
If you want it, yeah
         G#m      
You can have it, oh, oh, oh
        Fm7(5-)       
If you need it, oooh
        D#m       
We can make it, oh
G#m      
If you want it
         A#7      
You can have it

[Refrão]

          B   C#
But stay woke
         D#m       
Niggas creepin'
           B      C#
They gon' find you
            D#m        
Gon' catch you sleepin' (oooh)
          B    C#
Now stay woke
         D#m       
Niggas creepin'
           B         C#       D#m
Now don't you close your eyes

          B   C#
But stay woke
         D#m       
Niggas creepin'
           B      C#
They gon' find you
            D#m        
Gon' catch you sleepin' (oooh)
          B    C#
Now stay woke
         D#m       
Niggas creepin'
           B         C#       D#m
Now don't you close your eyes

[Final] B  C#  D#m
        B  C#  D#m

E|----------------3b-1-3b-1-3-----------|
B|---------1-------------------3b-1-----|
G|-7---2-3---3b-------------------------|
D|--------------------------------------|
A|--------------------------------------|
E|--------------------------------------|
00:00 / 00:00
Outros vídeos desta música
Repetir
Outros vídeos desta música
Composição de Donald Glover / Ludwig Goransson
Colaboração e revisão:
65.457 exibições
    • ½ Tom
    • A
    • Bb
    • B
    • C
    • Db
    • D
    • Eb
    • E
    • F
    • F#
    • G
    • Ab
  • Adicionar à lista

    0 comentários

    Ver todos os comentários

    Entre para oCifra Club PRO

    Tenha acesso a benefícios exclusivos no App e no Site

    • Chega de anúncios

    • Prioridade de compra em lançamentos

    • Mais recursos no app do Afinador

    • Atendimento Prioritário

    • Descontos nos produtos Cifra Club

    • Ajude a produzir mais conteúdo

    00:00 / 00:00

    Cifra Club Pro

    Aproveite o Cifra Club com benefícios exclusivos e sem anúncios
    Cifra Club Pro
    Aproveite o Cifra Club com benefícios exclusivos e sem anúncios
    OK