Cifra Club

Down Again

Chimaira

Cifra: Principal (violão e guitarra)
Selo Cifra Club: esta cifra foi revisada para atender aos critérios oficiais da nossa Equipe de Qualidade.
tom: C
Chimaira
Down Again
The Impossiblity of Reason
^ = bend
~ = vibrato
. = palm mute
X/= pick slide

Tuning: Drop C (CGCFAD)

Intro
Chorus x2
Verse x4
Fill 1
Chorus x4
Verse x4 (first two times w/o 3's)
Fill 1
Chorus x4
Bridge x2
Fill 2
Chorus x4
ChorusB x4
Outro

INTRO
piano stuff, then:
|------------------------------------------------------------------------------------|
|------------------------------------------------------------------------------------|
|------------------------------------------------------------------------------------|
|------------------------------------------------------------------------------------|x5
|11^-10-11---13-11-13^-11-13---15-13---13-13-13-15-15-15-15-13-13-15-13-13-15~~~~~---|
|------------------------------------------------------------------------------------|

fifth time guitar 2 plays this:
|-----------------------------------------------------------|
|-----------------------------------------------------------|
|21^~~~19^~~~~~18^~~~17^~~~~~16^~~~15^~~~~~14^---16^~-------|
|-----------------------------------------------------------|
|-----------------------------------------------------------|
|------------------------------------------------------X/---|

CHORUS
|-----------------------------------------|
|-----------------------------------------|
|-----------------------------------------|
|3--1--4--3--6--4-4-1-1-3-1-1-3--4--4-3-1-|
|3--1--4--3--6--4-4-1-1-3-1-1-3--4--4-3-1-|
|3--1--4--3--6--4-4-1-1-3-1-1-3--4--4-3-1-|
                    . .   . .

VERSE (im not exactly sure on the number of notes)
|-----------------------------------------------------------|
|-----------------------------------------------------------|
|-----------------------------------------------------------|
|3--3-3-3-3-3-3-3-3-3-3-3-3-3-3-----------------------------|
|3--3-3-3-3-3-3-3-3-3-3-3-3-3-3-6666666666666-8888888888888-|
|3--3-3-3-3-3-3-3-3-3-3-3-3-3-3-----------------------------|
    . . . . . . . . . . . . . .

FILL 1
|------------|
|------------|
|------------|
|1-----------|
|1-----------|
|1------X/---|

BRIDGE
|------------------------------------------------------------------------------|
|------------------------------------------------------------------------------|
|------------------------------------------------------------------------------|
|------------------------------------------------------------------------------|
|13^---13-13-13-11-10-6----15-15-15-16^--16^--16--16--15-15-16-15-15-13~~~~~---|
|------------------------------------------------------------------------------|

FILL 2
|---------------|
|---------------|
|---------------|
|3-1-4-3-6--4---|
|3-1-4-3-6--4---|
|3-1-4-3-6--4---|

CHORUS B
|-------------------------|
|-------------------------|
|-------------------------|
|3-1-4-3-6--4------1-1-3--|
|3-1-4-3-6--4------1-1-3--|
|3-1-4-3-6--4------1-1-3--|
                   . .

OUTRO
|--------------------|
|--------------------|
|--------------------|
|1-1-1-1-1-1-3-------|
|1-1-1-1-1-1-3-------|
|1-1-1-1-1-1-3-------|
 . . . . . .
        respective writers.
Outros vídeos desta música
    1.052 exibições
      • ½ Tom
      • A
      • Bb
      • B
      • C
      • Db
      • D
      • Eb
      • E
      • F
      • F#
      • G
      • Ab
    • Adicionar à lista

    Afinação da cifra

    Afinador online

      0 comentários

      Ver todos os comentários

      Entre para o Cifra Club PRO

      Tenha acesso a benefícios exclusivos no App e no Site

      • Chega de anúncios

      • Badges exclusivas

      • Mais recursos no app do Afinador

      • Atendimento Prioritário

      • Aumente seu limite de lista

      • Ajude a produzir mais conteúdo

      Cifra Club Pro

      Aproveite o Cifra Club com benefícios exclusivos e sem anúncios
      Cifra Club Pro
      Aproveite o Cifra Club com benefícios exclusivos e sem anúncios
      OK