Cifra Club

Folks Are Gone

Chixdiggit

Cifra: Principal (violão e guitarra)
Selo Cifra Club: esta cifra foi revisada para atender aos critérios oficiais da nossa Equipe de Qualidade.
tom: C
Intro 
e|-----| 
B|-----| 
G|--5--| 
D|--5--| 
A|--3--| 
E|-----| 

Verse "I saw you at the mall this weekend..." 
e|-------------------------------------| 
B|-------------------------------------| 
G|-5-----------------------------------| 
D|-5---------5-5-3-----5-----3-----5---| 
A|-3---------5-5-3-----5-----3-----5---| 
E|-----------3-3-1-----3-----1-----3---| 

Chorus "It's alright sergeant pepper..." 
e|----[Chorus 1] x2------|-[Chorus 2]-| 
B|-----------------------|------------| 
G|-(pm)--(pm)---5--------|--------5---| 
D|--3-----5-----5--5--3--|---5----5---| 
A|--3-----5-----3--5--3--|---5----3---| 
E|--1-----3--------3--1--|---3--------| 

Bridge "You can never go home..." 
e|------------------------------------------------------| 
B|------------------------------------------------------| 
G|-3-----5---------------3-----5---------------------5--| 
D|-3-----5-----3---------3-----5-----7-----8---------5--| 
A|-1-----3-----3---}x2---1-----3-----7-----8---------3--| 
E|-------------1---------------------5-----6------------| 

3rd Verse 
e|----------------| 
B|----------------| 
G|-5--------------| 
D|-5---------5-5--| 
A|-3---------5-5--| 
E|-----------3-3--| 

3rd Chorus 
e|--------------------|--------------------------------------| 
B|--------------------|--------------------------------------| 
G|--------------------|-------------5-----5---------------5--| 
D|-play [Chorus 1] x2-|-3-----5-----5--5--5--5--3----5----5--| 
A|--------------------|-3-----5-----3--5--3--5--3----5----3--| 
E|--------------------|-1-----3--------3-----3--1----3-------|
Outros vídeos desta música
    483 exibições
      • ½ Tom
      • A
      • Bb
      • B
      • C
      • Db
      • D
      • Eb
      • E
      • F
      • F#
      • G
      • Ab
    • Adicionar à lista

    Afinação da cifra

    Afinador online

      0 comentários

      Ver todos os comentários

      Conseguiu tocar?

      0Tocaram0Ainda não

      Grave um vídeo tocando Folks Are Gone e nos envie!

      Toque também

      1. Imagem do artista The LillingtonsBrain Damage The Lillingtons
      2. Imagem do artista The ApersEyes Wide Open The Apers
      3. Imagem do artista The CopyrightsSecond Hearse Same As The First The Copyrights
      4. Imagem do artista The QueersI Dont Wanna Work The Queers

      Entre para o Cifra Club PRO

      Tenha acesso a benefícios exclusivos no App e no Site

      • Chega de anúncios

      • Badges exclusivas

      • Mais recursos no app do Afinador

      • Atendimento Prioritário

      • Aumente seu limite de lista

      • Ajude a produzir mais conteúdo

      Cifra Club Pro

      Aproveite o Cifra Club com benefícios exclusivos e sem anúncios
      Cifra Club Pro
      Aproveite o Cifra Club com benefícios exclusivos e sem anúncios
      Ops (: Contenido disponible sólo en portugués.
      OK