Cifra Club

Where's You Mom?

Chixdiggit

Cifra: Principal (violão e guitarra)
Selo Cifra Club: esta cifra foi revisada para atender aos critérios oficiais da nossa Equipe de Qualidade.
tom: G
todas as notas em 5 ou bordão como são conhecidas!

Intro: G, C, E, G, D

G                                         C
I get turned on by her arms in a hamper.  Parents that are daring
                        E                                   G    D
zipping in the comapies night.  I bet their getting sweaty.
G                                                 C
?Cause when I met you, you were a virgin in paper trying to be
                       E             G             D
wishing all I could at all your just not like your mom.

Refrão 2x
G                      C                     E
(try to look) like your mom.  (try to act) like your mom.  (try to smell) like your mom
G             D
gonna come oh where's your mom?   tcha!

Guitar Solo
e|--------------------------------------------------------------------|
B|-/10-8-7-8-10-8---/10-8-7-8-7-5---/10-8-7-8-10-8-12-10-8-12-10-8----|
G|--------------------------------------------------------------------|
D|--------------------------------------------------------------------|
A|--------------------------------------------------------------------|
E|--------------------------------------------------------------------|

e|--------------------------------------------------------------------|
B|--------------------------------------------------------------------|
G|-------12-------12-------12-14-12-------12-------12-------12-14-12--|
D|-12h14----12h14----12h14----------12h14----12h14----12h14-----------|
A|--------------------------------------------------------------------|
E|--------------------------------------------------------------------|



e|--------------------------------------------------------------------|
B|------------------/12~~~~-/15~~~~-----------------------------------|
G|-16-16-14-12-9--------------------12/-------------------------------|
D|--------------------------------------------------------------------|
A|--------------------------------------------------------------------|
E|--------------------------------------------------------------------|

[Só o Baixo com os mesmos acordes!]

I had a dream she flew me to Vegas, tied me to the bed and played

bridge with her friends, and they were naked.  The next day she

took me out shopping, Bought me kids clothes just to dress me up
Oh God she said I was a bad boy


Refrão 2x
G                      C                     E
(try to) look like your mom.  (try to act) like your mom.  (try to smell) like your mom
G             D                           G
gonna come oh where's your moooooom?
Outros vídeos desta música
    630 exibições
      • ½ Tom
      • A
      • Bb
      • B
      • C
      • Db
      • D
      • Eb
      • E
      • F
      • F#
      • G
      • Ab
    • Adicionar à lista

    Afinação da cifra

    Afinador online

      0 comentários

      Ver todos os comentários

      Conseguiu tocar?

      0Tocaram0Ainda não

      Grave um vídeo tocando Where's You Mom? e nos envie!

      Toque também

      1. Imagem do artista The LillingtonsBrain Damage The Lillingtons
      2. Imagem do artista The ApersEyes Wide Open The Apers
      3. Imagem do artista The CopyrightsSecond Hearse Same As The First The Copyrights
      4. Imagem do artista The QueersI Dont Wanna Work The Queers

      Entre para o Cifra Club PRO

      Tenha acesso a benefícios exclusivos no App e no Site

      • Chega de anúncios

      • Badges exclusivas

      • Mais recursos no app do Afinador

      • Atendimento Prioritário

      • Aumente seu limite de lista

      • Ajude a produzir mais conteúdo

      Cifra Club Pro

      Aproveite o Cifra Club com benefícios exclusivos e sem anúncios
      Cifra Club Pro
      Aproveite o Cifra Club com benefícios exclusivos e sem anúncios
      Ops (: Contenido disponible sólo en portugués.
      OK