Cifra Club

I Was Wrong

Chris Stapleton

Cifra: Principal (violão e guitarra)
tom: D
[Intro]

      Dm7  Am        Dm7   Am
E|-5---5--5---------5----5---------------------------|
B|-5h6-6--5---------5h6--5---------------------------|
G|-5---5--5---------5----5---------------------------|
D|-5h7-7--7---------5h7--7---------------------------|
A|-5---5--7---------5----7--------5--7--5h7p5-----5--|
E|--------5--5--8--------5--5--8---------------8-----|

      Dm7  Am        Dm7   Am
E|-5---5--5---------5----5---------------------------|
B|-5h6-6--5---------5h6--5---------------------------|
G|-5---5--5---------5----5---------------------------|
D|-5h7-7--7---------5h7--7---------------------------|
A|-5---5--7---------5----7--------5--7--5h7p5-----5--|
E|--------5--5--8--------5--5--8---------------8-----|

Dm7       Am               Dm7          Am
I've been thinking 'bout my thoughtless words
Dm7   Am                     Dm7        Am
And I know just how much they must have hurt
Gm                Fm Gm
And I take it back
Gm
Won't you let me take it back

      Dm7  Am        Dm7   Am
E|-5---5--5---------5----5---------------------------|
B|-5h6-6--5---------5h6--5---------------------------|
G|-5---5--5---------5----5---------------------------|
D|-5h7-7--7---------5h7--7---------------------------|
A|-5---5--7---------5----7--------5--7--5/7\5-----5--|
E|--------5--5--8--------5--5--8---------------8-----|

      Dm7  Am        Dm7   Am
E|-5---5--5---------5----5---------------------------|
B|-5h6-6--5---------5h6--5---------------------------|
G|-5---5--5---------5----5---------------------------|
D|-5h7-7--7---------5h7--7---------------------------|
A|-5---5--7---------5----7--------5--7--5/7\5-----5--|
E|--------5--5--8--------5--5--8---------------8-----|

Dm7     Am                 Dm7        Am
You know I told you that I don't love you
Dm7      Am                 Dm7     Am
That I'd be better off with someone new
Gm
But I take it back
Gm                       A
Won't you let me take it back

Dm7                Am      Gm
Girl you know that I-------I still love you
Dm7               Am      Gm
And you know that I-------I'm so alone
Dm7          Am      Gm
I don't know whyyyyyyy
Gm          Fm Gm
I told you that I didn't need you

Can't you see that baby I was wrong

[Solo]

E|----------------------------------------------------------------|
B|----------------6b7-6b7-6b7-6b7-6b7-6b7-------6b7---------------|
G|------------5-7-------------------------7-5-7-----7-------------|
D|------3-5/7-----------------------------------------------------|
A|--3h5-----------------------------------------------------------|
E|----------------------------------------------------------------|

E|-----------------------8----------------------------------------|
B|----6-8-8b10b8p6---------8b10-6-8-6----8b10-8b11-8-8p6----------|
G|--7--------------7-7-7--------------7------------------5--------|
D|----------------------------------------------------------------|
A|----------------------------------------------------------------|
E|----------------------------------------------------------------|

E|----------------------------------------------------------------|
B|-6-8-6h8p6------------------------------------------------------|
G|-----------7-5h7p5----------------------------------------------|
D|-------------------7\5p3---------------------3-5-3b4------------|
A|-------------------------5-5-5-5-5-5-5-3h5-5---------5-5-5------|
E|----------------------------------------------------------------|

E|----------------------------------------------------------------|
B|----------------------------------------------------------------|
G|----------------------------------------------------------------|
D|-------------------------------------------3-5-3-5b6-3-5-3b4----|
A|-3h5-5-5-5-5-5-3h5-5-5-5-5-5-3h5-5-5-5-5-5-------------------5-5|
E|----------------------------------------------------------------|

Bb7                             Dm7
What I wouldn't give to be your lover again
Bb7                          Dm7
All I want to do is touch your skin
Bb7
If I had you right here right now
Gm
I'd tell you, tell you, tell you, tell you

Dm7                Am      Gm
Girl you know that I-------I still love you
Dm7               Am      Gm
And you know that I-------I'm so alone
Dm7          Am      Gm
I don't know whyyyyyyy
Gm          Fm Gm
I told you that I didn't need you

Can't you see that baby I was wrong
00:00 / 00:00
Outros vídeos desta música
Repetir
Outros vídeos desta música
Composição de Chris Stapleton
Colaboração e revisão:
  • vitor costa
4.304 exibições
    • ½ Tom
    • A
    • Bb
    • B
    • C
    • Db
    • D
    • Eb
    • E
    • F
    • F#
    • G
    • Ab
  • Adicionar à lista

    0 comentários

    Ver todos os comentários

    Conseguiu tocar?

    2 Tocaram 0 Ainda não

    Grave um vídeo tocando I Was Wrong e nos envie!

    Entre para oCifra Club PRO

    Tenha acesso a benefícios exclusivos no App e no Site

    • Chega de anúncios

    • Prioridade de compra em lançamentos

    • Mais recursos no app do Afinador

    • Atendimento Prioritário

    • Descontos nos produtos Cifra Club

    • Ajude a produzir mais conteúdo

    00:00 / 00:00

    Cifra Club Pro

    Aproveite o Cifra Club com benefícios exclusivos e sem anúncios
    Cifra Club Pro
    Aproveite o Cifra Club com benefícios exclusivos e sem anúncios
    OK