Cifra Club

De Passagem

Cicero

Cifra: Principal (violão e guitarra)
Selo Cifra Club: esta cifra foi revisada para atender aos critérios oficiais da nossa Equipe de Qualidade.
tom: C
( F  G  Gm7  Dm )

         F         G
Na onda leve da brisa do dia
           Gm7      Dm
Na onda longa do trem
          F       G
Na brisa leve da vida do dia
         Gm7         Dm
Eu encontrei o meu bem

         F       G
Não era fogo nem alegoria
        Gm7      Dm
Não era fuga também
        F       G
Não era medo da melancolia
       Gm7     Dm
Era o dia de bem

( F  G  Gm7  Dm )

         F      G
O jeito dela levando meu tento
      Gm7      Dm
Iluminura no breu
         F       G
O mundo dela lançando doçura
       Gm7      Dm
Na amargura do meu

         F      G
A calma dela mudando meu rumo
      Gm7           Dm
As curvas dela também
        F         G
Na estação do acaso
         Gm7         Dm
Eu encontrei o meu bem

( F  G  Gm7  Dm )

Melodia do acordeon.

E|-----------------------------------------------------------------------------|
B|--10--8-6-----6--------------10--8-6------6----------------------------------|
G|----------7---------------------------7--------------------------------------|
D|------------------9----------------------------------------------------------|
A|-----------------------------------------------------------------------------|
E|-----------------------------------------------------------------------------|

       F         G          Gm7     Dm
E tudo foi desbotando até desaparecer


Solinho tocado no "Cultura Livre"

E|-----------------------------------------------------------------------------|
B|-----------------------------------------------------------------------------|
G|------------14--14-14-14-12--------------14-12-----14--12----10-10/9-9/7--10-|
D|--12-12-15------------------15-14-12-15---------15--------12-----------------|
A|-----------------------------------------------------------------------------|
E|-----------------------------------------------------------------------------|


E|-----------------------------------------------------------------------------|
B|-----------------------------------------------------------------------------|
G|------------14--14-14-14-12--------------14-12-----14--12----10-10/9-9/7--7--|
D|--12-12-15------------------15-14-12-15---------15--------12-----------------|
A|-----------------------------------------------------------------------------|
E|-----------------------------------------------------------------------------|

Repete duas vezes e deixa a última nota soar
Outros vídeos desta música
    59.017 exibições
      • ½ Tom
      • A
      • Bb
      • B
      • C
      • Db
      • D
      • Eb
      • E
      • F
      • F#
      • G
      • Ab
    • Adicionar à lista

    Afinação da cifra

    Afinador online

      0 comentários

      Ver todos os comentários

      Entre para o Cifra Club PRO

      Tenha acesso a benefícios exclusivos no App e no Site

      • Chega de anúncios

      • Badges exclusivas

      • Mais recursos no app do Afinador

      • Atendimento Prioritário

      • Aumente seu limite de lista

      • Ajude a produzir mais conteúdo

      Cifra Club Pro

      Aproveite o Cifra Club com benefícios exclusivos e sem anúncios
      Cifra Club Pro
      Aproveite o Cifra Club com benefícios exclusivos e sem anúncios
      Ops (: Contenido disponible sólo en portugués.
      OK