Cifra Club

A Cor do Sol (Acústico MTV)

Cidade Negra

Cifra: Principal (violão e guitarra)
Selo Cifra Club: esta cifra foi revisada para atender aos critérios oficiais da nossa Equipe de Qualidade.
tom: G
Base: Em C Am B7

Introdução
e|----------------------------------------------------------|
B|----------------------------------------------------------|
G|----------------------------------------------------------|
D|-----------7-9-----------------7-9----12-10-9-7-----------|
A|---7--9-10-----10------7--9-10-----10-----------10-9-7-6--|
E|-7-------------------7------------------------------------|

e|---------5-7--------------5-7------10-8-7-5---------7-----|
B|-0-5-7-8-----8----0-5-7-8-----8-------------8-7-5-4-------|
G|----------------------------------------------------------|
D|----------------------------------------------------------|
A|----------------------------------------------------------|
E|----------------------------------------------------------|


 Em
  Amor 
    C
  Estamos atravessando
      Am
  O milênio
                       B7        Em   
  O novo tempo está chegando, ê yeah

           C 
  A cor do sol está brilhando
          Am
  E anuncia
                 B7  
  Um novo dia de folia
    Em
  A inocência, o respeito
    C
  A alegria de estar sério
    Am 
  O bom humor e sentimento
  B7                
  Nós vamos levar 
 Em
  Deixar pra trás maus pensamentos
  C
  Desequilíbrios, as amarguras
     Am
  Viver em paz todo o momento
     B7 
  Dentro de casa, no meio da rua
 Em
  Se você acha impossível
      C
  Ter tudo isso e um amor tranquilo
      Am
  Que tal tentar só um pouquinho?
    B7
  Experimente ver no que dá

  Em
  E vê se dá!              |
  Experimente              |
  Pra ver se dá            |
  C                        |
  E vê se dá!              |
  Experimente              |  2x (Refrao)
  Pra ver se dá            |            
  Am                       |   
  Viva sempre              | 
       B7                  |
  Aproveite o momento      |


  Introdução

  
  1001 lendas do novo milênio  |
  de um novo milenio...        |  2x
  de um novo milenio...        |
  de um novo milenio...        |


 Solo da musica ( tem que escutar bem pq tem uns slides no meio )

e|---7-5-7-5----------------------------------------------5-5-3-5-3-0-3-5-5-3-|
B|-----------8-10-8-7-8-7-5-7-5---5-------------------0-----------------------|
G|------------------------------7---7-5-7-5--4-5-4--2---2---------------------|
D|----------------------------------------------------------------------------|
A|----------------------------------------------------------------------------|
E|----------------------------------------------------------------------------|

e|-5-3-0-3-5s7-7h5-|7-7h5-|---------------------------------------------------|
B|-----------------|------|---------------------------------------------------|
G|-----------------|------|---------------------------------------------------|
D|-----------------|------|---------------------------------------------------|
A|-----------------|------|---------------------------------------------------|
E|-----------------|------|---------------------------------------------------|
                    varias vezes ( essa parte é bem rapida )

 Repete o solo 2x 


  Final
e|------------------------------------------------------------------------------|
B|------------------------------------------------------------------------------|
G|------------------------------------------------------------------------------|
D|-----------7-9-----------------7-9----12-10-9-7-----------9-9-7-7-5-5-4-4-2---|
A|---7--9-10-----10------7--9-10-----10-----------10-9-7-6----------------------|
E|-7-------------------7--------------------------------------------------------|
Outros vídeos desta música
    108.533 exibições
      • ½ Tom
      • A
      • Bb
      • B
      • C
      • Db
      • D
      • Eb
      • E
      • F
      • F#
      • G
      • Ab
    • Adicionar à lista

    Afinação da cifra

    Afinador online

      0 comentários

      Ver todos os comentários

      Entre para o Cifra Club PRO

      Tenha acesso a benefícios exclusivos no App e no Site

      • Chega de anúncios

      • Badges exclusivas

      • Mais recursos no app do Afinador

      • Atendimento Prioritário

      • Aumente seu limite de lista

      • Ajude a produzir mais conteúdo

      Cifra Club Pro

      Aproveite o Cifra Club com benefícios exclusivos e sem anúncios
      Cifra Club Pro
      Aproveite o Cifra Club com benefícios exclusivos e sem anúncios
      OK