Cifra Club

Celofán

La Gusana Ciega

Cifra: Principal (violão e guitarra)
tom: Am
C                G
CAB  TODA A  CANCION VA CON ESOS ACORDES
E|-------------------------------------|
B|--------2----------------------------|
G|--------2-------5--------------------|
D|-------------------------------------|
A|-------------------------------------|
E|-------------------------------------|

E|-------------------------------------|
B|-------2s3---------------------------|
G|-------------------------------------|
D|-------------------------------------|
A|-------------------------------------|
E|-------------------------------------|

ED S PAPEL DE CELOF N,,,QUE NO CAMBIA DE COLOR,,,
LO QUE PIERDES CON EL TIEMPO Y LO QUE VUELBES A ENCONTRAR --
C,,,,A ,,,,E ,,,A ,,,E ,,,A ,,,E ,,,,A ,,,E 
E|------------------------------------|
B|-------------0-----------------------|
G|------0| 2 3----0 2 3----------------
D|-------------------------------------|
A|-------------------------------------|
E|-------------------------------------|

E|-------------------------------------|
B|-------------------------------------|
G|-------2S| 55-------------------------
D|-------------------------------------|
A|-------------------------------------|
E|-------------------------------------|

NO ESTOY SEGURO QUE AB  VA PERO AHI BUSQUENLE
C          G
E|---------------------------------------------------|
B|---------------------------------------------------|
G|-----0| 2---/2 0 2 3  2 02-/-3-0-3-0-2S3------------
D|---------------------------------------------------|
A|---------------------------------------------------|
E|---------------------------------------------------|
A  ULTIMA PARTE VA AB 
E|-------------------------------------|
B|-------------------0------------------|
G|-----2-2-0-2--2-0-| 2-2-0-2-----------
D|-------------------------------------|
A|-------------------------------------|
E|-------------------------------------|
00:00 / 00:00
Outros vídeos desta música
Repetir
Outros vídeos desta música
Composição de Daniel Gutierrez
3 exibições
    • ½ Tom
    • Am
    • Bbm
    • Bm
    • Cm
    • C#m
    • Dm
    • Ebm
    • Em
    • Fm
    • F#m
    • Gm
    • G#m
  • Adicionar à lista

    0 comentários

    Ver todos os comentários

    Conseguiu tocar?

    0 Tocaram 0 Ainda não

    Grave um vídeo tocando Celofán e nos envie!

    Entre para oCifra Club PRO

    Tenha acesso a benefícios exclusivos no App e no Site

    • Chega de anúncios

    • Prioridade de compra em lançamentos

    • Mais recursos no app do Afinador

    • Atendimento Prioritário

    • Descontos nos produtos Cifra Club

    • Ajude a produzir mais conteúdo

    00:00 / 00:00

    Cifra Club Pro

    Aproveite o Cifra Club com benefícios exclusivos e sem anúncios
    Cifra Club Pro
    Aproveite o Cifra Club com benefícios exclusivos e sem anúncios
    OK