Cifra Club

A Noite Virou Dia

Cine

Cifra: Principal (violão e guitarra)
Tom: F
Am                                   F
   E não me faço de algo que eu não sou
                   C   G
para te ver sorrindo

Am
   E nossos passos que eram tão mais firmes
    F                   C   G
pra onde foram caminhando?

Am     F           C           G
Você abusa do meu ser, dói em mim,
Am      F                   C    G
Hoje eu sinto, tenho que dizer,

(riff acompanha a base nessa parte)
E |------------------------------------0------------
B |--------------------------------------0----------
G |----------------------0-----0-----2-----2--------
D |------------2-----2-------------4---------4------
A |--3-----3-0-----0---3-----3---5-------------5----
E |1-----1------------------------------------------

F                        Am
 Que eu vou parar o tempo,
               F
contemplar você
minutos em silêncio
    Am
e a terra para-paparapara
F                        Am
 Eu sinto que o seu beijo,
                    F
ainda me faz tremer,
a noite virou dia
    Am
e a terra para-paparapara

(batida normal)

F                   Am
e eu quero ver, se você vai dançar
F                         Am
até o amanhecer, quando o sol te encontrar
F                 Am          F      C
prefiro não dizer, que você...

    C
E |----------------0---------
B |---1----3-------0---------
G |---0----0-----------------
D |-2----4------4-----4------
A |-3----5---5--5------------
E |--------------------------

(volta pra batida do começo da música)

F                   Am
e eu quero ver, se você vai dançar
F                         Am
até o amanhecer, quando o sol te encontrar...
exibições 57.076
Acordes para:
    Composição: Dan / Dh Colaboração e revisão:
    • Thiago Simião
    • Rodrigo Dias

    0 comentários

    mostrar mais comentários

    Conseguiu tocar?

    7 tocaram 0 ainda não

    Grave um vídeo tocando A Noite Virou Dia e mande pra gente!

    00:00 / 00:00
    outros vídeos desta música
    repetir qualidade Automático
    Outros vídeos desta música
    00:00 / 00:00
    Automático
    OK