Cifra Club

How

Clairo

Cifra: Principal (violão e guitarra)
Selo Cifra Club: esta cifra foi revisada para atender aos critérios oficiais da nossa Equipe de Qualidade.
tom: Ebm
  00:04
E|------------------------|---------------------|--------------------------------------------|
B|--14------12----12------|------------12-------|--------------------------------------------|
G|--13---13----11----13---|-13---13-13----13-11-|--------------------------------------------|
D|------------------------|---------------------|-13----13---14-13-11--11--13--13-11-13/15hb-|
A|------------------------|---------------------|--------------------------------------------|
E|------------------------|---------------------|--------------------------------------------|

                                                    (all while holding half-bend)
E|-----------------------------------------------|----------------------------------------------------|
B|-----------------------------------12---12-14--|-hpb15---15-15rhb--15rhb--15rhb-----17-p16-16-17-16-|
G|-------------13---13-11-13-11-13---------------|----------------------------------------------------|
D|-15rb-hbr-hb-----------------------------------|----------------------------------------------------|
A|-----------------------------------------------|----------------------------------------------------|
E|-----------------------------------------------|----------------------------------------------------|

  00:29
E|--------------------------------------------|--------------------------------------------|
B|-14---14-12---12------------------12--------|--------------------------------------------|
G|-----------------13~---13---13-13----13-11\-|--------------------------------------------|
D|--------------------------------------------|-11----13---13---13-14-14-13-14-13-13\-11-\-|
A|--------------------------------------------|--------------------------------------------|
E|--------------------------------------------|--------------------------------------------|

E|--------------------------------|---------------------------------------|
B|---------------12---12----12----|---------------------------------------|
G|-9---11-/-13-----------13----13-|-11---13--11-13/16-16--16/-18--18/-20--|
D|--------------------------------|---------------------------------------|
A|--------------------------------|---------------------------------------|
E|--------------------------------|---------------------------------------|

E|----------------------------------------|------------------------------------------|
B|-19-19-16-------------------------------|------------------------------------------|
G|----------16---16-13---13--13--16-13-11-|------------------------------------------|
D|----------------------------------------|-13-13-13-11---13--13-14-13-14-14-13\--11-|
A|----------------------------------------|------------------------------------------|
E|----------------------------------------|------------------------------------------|

  01:06
E|---------------------------------|-----------------------------------|
B|----------------7-7-5-7-5-4--5-4-|-----4-4----7---4---4-5--5/7-7/12--|
G|-11-9-9-8\--4-6------------------|-6--------4---6--------------------|
D|---------------------------------|-----------------------------------|
A|---------------------------------|-----------------------------------|
E|---------------------------------|-----------------------------------|

E|-----------------------11--11-12-12-12-12-11-|--------------------------------------------|
B|-12-12-14-12---12-14-------------------------|-14---14-14---14-14-14---12--12-------------|
G|---------------------------------------------|--------------------------------13---13-11--|
D|---------------------------------------------|--------------------------------------------|
A|---------------------------------------------|--------------------------------------------|
E|---------------------------------------------|--------------------------------------------|

E|---------------------------------------------|------------------------------------------|-------|
B|---------------------------------------------|--------------------------------------14--|-16~~--|
G|----11---------------------------------------|--------------------------13---13-16------|-------|
D|-13----13-11-14-13---13-14-13---11--11-11-11-|-13-13-13-14--14/-16---16-----------------|-------|
A|---------------------------------------------|------------------------------------------|-------|
E|---------------------------------------------|------------------------------------------|-^-----|
                                                                                           or play
  [Outro] 01:44                                                                             outro
E|------------------|------------------|------------------|------------------| < chords
B|-0----------------|------------------|-0----------------|------------------|
G|-1----------------|-1----------------|-1----------------|-1----------------|
D|-2----------------|-1----------------|-2----------------|-1----------------|
A|-2----------------|-2----------------|-2----------------|-2----------------|
E|-0----------------|------------------|-0----------------|------------------|



************************************

| p    Pull-off
| hb   Half-Bend
| rb   Release Bend
| hbr  Half-bend then release
| hpb  Half Pre-bend
| /   Slide up
| \   Slide down
| ~   Vibrato
Outros vídeos desta música
    267 exibições
      • ½ Tom
      • Am
      • Bbm
      • Bm
      • Cm
      • C#m
      • Dm
      • Ebm
      • Em
      • Fm
      • F#m
      • Gm
      • G#m
    • Adicionar à lista

    Afinação da cifra

    Afinador online

      0 comentários

      Ver todos os comentários

      Conseguiu tocar?

      0Tocaram0Ainda não

      Grave um vídeo tocando How e nos envie!

      Entre para o Cifra Club PRO

      Tenha acesso a benefícios exclusivos no App e no Site

      • Chega de anúncios

      • Badges exclusivas

      • Mais recursos no app do Afinador

      • Atendimento Prioritário

      • Aumente seu limite de lista

      • Ajude a produzir mais conteúdo

      Cifra Club Pro

      Aproveite o Cifra Club com benefícios exclusivos e sem anúncios
      Cifra Club Pro
      Aproveite o Cifra Club com benefícios exclusivos e sem anúncios
      Ops (: Contenido disponible sólo en portugués.
      OK