Cifra Club

Você Existe Em Mim

Claudia Leitte

Cifra: Principal (violão e guitarra)
exibições 14.402
Tom: G
Intro 3x: Em  D  Em  Em/B  Em  Em/B  Em

     Em
E|-------------------|
B|-------0---0-------|
G|-----0---0---0-----|    (4x)
D|---2-----------2---|
A|-------------------|
E|-0-----------------|

Em         G           D D4 D D5(9) D
Vim amar você até o final
               Am                  C7M
Da chuva que navega nesse corpo tropical
  Em          G         D D4 D D5(9) D
Espero amar você até durar
               Am                      C7M
A lua que esclarece esse sol sem descansar jamais

Refrão:
    G   D             Em   C
Amar o quanto precisar que ame
G            D             Em    C
   E então recuse a escuridão te amo
G             D
   Pra que chorar
Em7         C
   Chorar é fim
Em       G     D  Em7
   Você existe em mim

Dedilhado: Em7  D  Em7  D

       Em7                  D
E|-------------------|-------2---2----||
B|-------3---3-------|-----3---3---3--||
G|-----0---0---0-----|---2------------||    (2x)
D|---2-----------2---|-0--------------||
A|-------------------|----------------||
E|-0-----------------|----------------||

Em         G           D D4 D D5(9) D
Vim servi amor e aterrissar
                  Am
Os anjos dos meus versos
                   C
Pra você não me deixar de amar
  Em                G              D D4 D D5(9) D
Será que em Deus os versos nascem assim
                  Am
Como em toda primavera nascem flores
      C7M
Pra mimar jardim

Refrão:
    G   D             Em   C
Amar o quanto precisar que ame
G            D               Em  C
   E então recuse a escuridão te amo
G             D
   Pra que chorar
Em7         C
   Chorar é fim
Em       G     D  Em7
   Você existe em mim

E|-----0--7--5--7---||
B|-0----------------||
G|------------------|| (2x)
D|------------------||
A|------------------||
E|-0---0------------||

E|-------7---7-----7------------5--5----5----------3---3-----3-----------2--2---2------||
B|-----0---0---0-----0--------0--0--0-----0------0---0---0----0--------0--0--0---0-----||
G|---0-----------0-----0----0---------0-----0--------------0---0-----0--------0---0----||
D|-------------------------------------------------------------------------------------||
A|-------------------------------------------------------------------------------------||
E|-0---------------------0---------------------0------------------0--------------------||

(Puxar as cordas simultaneamente 2 vezes para cada acorde)

Em                    D
   A areia lambe o sal
                    Em          D             Em
já passou o temporal e a solução só você e eu
              D                        Em
A alma bebe o mar que vazou do coração
             C     D     G
E você me faz me fazer feliz

Refrão:
   D             Em   C
O quanto precisar que ame

G            D               Em  C
   E então recuse a escuridão te amo
G             D
   Pra que chorar
Em7         C
   Chorar é fim
Em       G     D  Em7
   Você existe em mim
Acordes para:
    Composição: Yuri LacrimantiColaboração e revisão:
    • Raissa Martins
    • Emanuelle Cardoso

    0 comentários

    mostrar mais comentários

    Conseguiu tocar?

    3tocaram0ainda não

    Grave um vídeo tocando Você Existe Em Mim e mande pra gente!

    00:00 / 00:00
    outros vídeos desta música
    repetirqualidadeAutomático
    Outro vídeos desta música
      00:00 / 00:00
      OK