Cifra Club

Gravemakers And Gunslingers

Coheed And Cambria

Cifra: Principal
exibições 657
Tom: C
Gravemakers and Gunslingers
Coheed & Cambria
Tabbed by Alex Olson with some help from Craig Slozak
10.9.07
Revised *


Drop D Tuning


Rhythm 1 and Fill 1 repeat under all verses
The choruses I cannot hear because of the not so great sound quality..
I'll revise again when I get the CD version



Rhythm 1
e---------------------------------------------------------------------------------------------------|
b---------------------------------------------------------------------------------------------------|
g---------------------------------------------------------------------------------------------------|
d-5--7-7--7-7-----------5--7--10---7-------------------------5--7-7--7-7------------------3-3--2-2--|
a-3--5-5--5-5-----------3--5--8----5-------------------------3--5-5--5-5--------5-5--3-3--1-1--0-0--|
d-------------------------------------------------------------------------------5-5--3-3------------|


Fill 1
e---------------------------------------| x2
b---------------------------------------|
g--------------2h5p2--------------------|
d---------3h5---------5-3---------------|
a----------------------------5----------|
d---------------------------------------|

SOLO 1

e--15b17-(17)-(17)-(17)-(17)b15p13------------------------------------|
b----------------------------------15-15~~~------------------18-------|
g------------------------------------------12//14tr17---17b19--19b17--|
d---------------------------------------------------------------------|
a---------------------------------------------------------------------|
d---------------------------------------------------------------------|

e------------------------------------------------------------------------------|
b--18b20-18-15h18p15----15--15h18p15-------------------------------------------|
g--------------------17--------------17-14-------------------------------------|
d------------------------------------------17~-17-17--15-15-14-14-14h15p14p12~-|
a------------------------------------------------------------------------------|
d------------------------------------------------------------------------------|


then:

Verse 

Chorus 



SOLO 2
e-20b22-(22)-(22)-(22)-(22)-22b20p18---------------------------------------------------------|
b------------------------------------20-20~--20b22b20p18----18-20-20b22b20p18----18b20b18----|
g--------------------------------------------------------19-------------------19----------19-|
d--------------------------------------------------------------------------------------------|
a--------------------------------------------------------------------------------------------|
d--------------------------------------------------------------------------------------------|

e-------------------------------------------------------------------------------------|
b-----15----13b15b13-------------15----13b15b13---------------------------------------|
g-/14----14----------14-12~--/14----14----------14-12~--12-12--10-10--9-9-9h10p9p7~---|
d-------------------------------------------------------------------------------------|
a-------------------------------------------------------------------------------------|
d-------------------------------------------------------------------------------------|


then:

Verse

Chorus


then a short breakdown that I can't really hear.


then a bridge-like section:


e-----------------|
b-----------------|
g-5-5-5-5-5-5-6---|
d-5-5-5-5-5-5-6---|
a-3-3-3-3-3-3-4---|
d-----------------|

With a line that may be bass:

e----------------------------|
b----------------------------|
g----------------------------|
d-0~--------------0~---------|
a----3-0~-------3----3-0~----|
d---------3-0------------3-0-|


Then comes this part.

e-----------------------------|
b-----------------------------|
g-----------------------------|
d--1-1-1--1-1-1--1-1-1--1-1-1-|
a--1-1-1--1-1-1--1-1-1--1-1-1-|
d--1-1-1--1-1-1--1-1-1--1-1-1-|

e-----------------------------|
b-----------------------------|
g-----------------------------|
d--0-0-0--0-0-0--0-0-0--0-0-0-|
a--0-0-0--0-0-0--0-0-0--0-0-0-|
d--0-0-0--0-0-0--0-0-0--0-0-0-|



For the last set of chords (the D5 chords) above a tapping lick is played:

  t           t           t           t           t           t
e-15p13p11p10-15p13p11p10-15p13p11p10-15p13p11p10-15p13p11p10-15p13p11p10-13-13~-|
b--------------------------------------------------------------------------------|
g--------------------------------------------------------------------------------|
d--------------------------------------------------------------------------------|
a--------------------------------------------------------------------------------|
d--------------------------------------------------------------------------------|




SOLO 3

e-10~~~~10-8-10-8-6-8-6-5-6-5-3-5-8b10~-8b10-8-5-6-5-6-5------------------------------------|
b---------------------------------------------------------8-8~-6-8-8h10p8p6-6h8p6p5-5h6p5p3-|
g-------------------------------------------------------------------------------------------|
d-------------------------------------------------------------------------------------------|
a-------------------------------------------------------------------------------------------|
d-------------------------------------------------------------------------------------------|

e--------------------------------------------------------15b(17)-(17)-(17)-(17)-(17)b15-|
b-3h5p3p1-------------------------------------4-4h6----------------------------------|
g----------3-2-------------------5--------5-7-------------------------------------------|
d--------------5-3-2-------5-7-8---5-7-8------------------------------------------------|
a--------------------~---------------------------------------------------------------|
d---------------------------------------------------------------------------------------|

e-15p13h14p13h15p13h14p13h15p13h14p13h15p13h14p13h15p13h14p13h15p13h14p13-15b17-|
b-------------------------------------------------------------------------------|
g-------------------------------------------------------------------------------|
d-------------------------------------------------------------------------------|
a-------------------------------------------------------------------------------|
d-------------------------------------------------------------------------------|

e-17p13h15p13h17p13h15p13h17p13h15p13h17p13h15p13h17p13h15p13h17p13h15p13h17p13h15p13-13b15-13~-|
b-----------------------------------------------------------------------------------------------|
g-----------------------------------------------------------------------------------------------|
d-----------------------------------------------------------------------------------------------|
a-----------------------------------------------------------------------------------------------|
d-----------------------------------------------------------------------------------------------|

e-----------------------------------------------------------------------------|
b-6-8-8b10~-6-5-5tr6----6/8-6-8-8/10-8-10-10/11-10-11-11/13-11-13-15~~~~~~-|
g-----------------------------------------------------------------------------|
d-----------------------------------------------------------------------------|
a-----------------------------------------------------------------------------|
d-----------------------------------------------------------------------------|


Chorus

ends with the beginning rhythm and fill 1.


Hope you enjoy.. it's great song.

Acordes para:
    Composição: Coheed and Cambria

    0 comentários

      mostrar mais comentários

      Conseguiu tocar?

      0tocaram0ainda não

      Grave um vídeo tocando Gravemakers And Gunslingers e mande pra gente!

      00:00 / 00:00
      outros vídeos desta música
      repetirqualidadeautomática
      Outro vídeos desta música
        00:00 / 00:00
        automática
        OK