Cifra Club

Aprenda

Mother Superior

Coheed And Cambria

Cifra: Principal (violão e guitarra)
tom: C
e|-----------------------------------------------|
b|-----------------------------------------------|
g|--------0-------2-----------2--0h2p0---5--5/7--|
d|------3--3---------3-2--2h3----------3---------|
a|--3h5------5-5---------------------------------|
e|-----------------------------------------------|

e|---------------------------------------|
b|---------------------------------------|
g|-----------------------------0---------|
d|---------2--3--2----------3------------|
a|--3--5------------5-3--1--------1--0---|
e|---------------------------------------|

e|--0----0-----------|
b|--3----0-----------|
g|--2----1-----------|
d|--0----0---3--3/5--|
a|-----------1--1/3--|
e|-------------------|

e|-------------|
b|-------------|
g|-------------|
d|----7--2--5--|
a|-3--5--0--3--|
e|-1-----------|

e|-------------|
b|-------------|
g|-------------|
d|-3-/5-----7--|
a|-1-/3--3--5--|
e|-------1-----|

e|-------------|
b|-------------|
g|-------------|
d|-3--3---5--5-|
a|-1--1---3--3-|
e|-------------|

e|-------------|
b|-------------|
g|-------------|
d|-3-----3-----|
a|-1--5--1--5--|
e|----3-----3--|

e|-------------|
b|-------------|
g|-------------|
d|----2--3-----|
a|-3--0--1--5--|
e|-1--------3--|

Composição de Coheed and Cambria
1.376 exibições
    • ½ Tom
    • A
    • Bb
    • B
    • C
    • Db
    • D
    • Eb
    • E
    • F
    • F#
    • G
    • Ab
  • Adicionar à lista

    0 comentários

    Ver todos os comentários

    Conseguiu tocar?

    0 Tocaram 0 Ainda não

    Grave um vídeo tocando Mother Superior e nos envie!

    00:00 / 00:00
    Outros vídeos desta música
    Repetir Qualidade Automático
    Outros vídeos desta música
    00:00 / 00:00
    Automático

    Cifra Club Pro

    Aproveite o Cifra Club com benefícios exclusivos e sem anúncios
    Cifra Club Pro
    Aproveite o Cifra Club com benefícios exclusivos e sem anúncios
    OK