Cifra Club

Aprenda

No World For Tomorrow

Coheed And Cambria

Cifra: Principal (violão e guitarra)
tom: F
Tabbed by: Blake Laiche

Tuning: Standard

This is my first tab I’ve submitted. I know it’s not perfect but I think it’s a good 
I’ll try keep it updated but if not hopefully it’ll help someone else get a good start and 
it.


Main Riff

e|------------------------------------------------|
B|------------------------------------------------|
G|------------------------------------------------|
D|-------0h7p0-0h5p0-0h2p0--------0h2-------2h3p2-|
A|-0h5p0--------------------0h3p0-----0h3p0-------|
E|------------------------------------------------|

e|-------------------------------------------------|
B|-------------------------------------------------|
G|-------------------------------------------------|
D|-8-7-5-------8-7-5---------------------------0h2-|
A|-------8-7-5-------8-7-5---0h3p0-0h5p0-0h7p0-----|
E|-------------------------------------------------|

"Bye Bye World”
e|-------------------------------------------------|
B|-------------------------------------------------|
G|-------------------------------------------------|
D|-5----12-14-15----5-2-7----12-14-15----5-2-------|
A|-7----10-12-13----3-0-5----10-12-13----3-0-------|
E|-------------------------------------------------| X2

"Raise Your Hands High”
e|----------------------------------------------------------------|
B|----------------------------------------------------------------|
G|----------------------------------------------------------------|
D|---------------------------------------3p2p0-3p2p0-3p2p0-3p2p0--|
A|-888888888888888888888888—10x10x10x10---------------------------|
E|-666666666666666666666666—-8x-8x-8x-8---------------------------| X2

"Change is coming”

e|---------------------------------|
B|---------------------------------|
G|---------------------------------|
D|-7----5/7-5-3-2---5--------------|
A|-5----------------3----5-3-------|
E|---------------------------6-5---| X2

"March to the drumming” (I know this part isn’t perfect)
e|----------------------------------------------------------|
B|----------------------------------------------------------|
G|----------------------------------------------------------|
D|-3-33-5---3-33-5---3-33-5----------------------0h2p0------|
A|-5-55-3---5-55-3---5-55-3----0h3p0-0h5p0-0h7p0------------|
E|----------------------------------------------------------| x2

| /  slide up
| \  slide down
| h  hammer-on
| p  pull-off
| ~  vibrato
| +  harmonic
| x  Mute note
=======================================================================
Composição de Coheed and Cambria
865 exibições
    • ½ Tom
    • A
    • Bb
    • B
    • C
    • Db
    • D
    • Eb
    • E
    • F
    • F#
    • G
    • Ab
  • Adicionar à lista

    0 comentários

    Ver todos os comentários

    Conseguiu tocar?

    0 Tocaram 0 Ainda não

    Grave um vídeo tocando No World For Tomorrow e nos envie!

    00:00 / 00:00
    Outros vídeos desta música
    Repetir Qualidade Automático
    Outros vídeos desta música
    00:00 / 00:00
    Automático

    Cifra Club Pro

    Aproveite o Cifra Club com benefícios exclusivos e sem anúncios
    Cifra Club Pro
    Aproveite o Cifra Club com benefícios exclusivos e sem anúncios
    OK