Cifra Club

Chinese Sleep Chant

Coldplay

Cifra: Principal
exibições 2.772
Tom: A
INTRO:

e|---0-----------0-----------|
B|---0-----------0-----------|
G|---9----------11-----------|
D|---7-----------9-----------| (2)
A|---9----------11-----------|
E|---7-----------9-----------|


VERSE:

e|---0-----------0-----------|
B|---0-----------0-----------|
G|---9----------11-----------| (2)
D|---7-----------9-----------|
A|---9----------11-----------|
E|---7-----------9-----------|

e|--0-----0-------0----0-------0-------|
B|--0-----0-------0----0-------0-------|
G|--11----13------11---13------11------|
D|--14----14------14---14------9-------|
A|--14----14------14---14------11------|
E|--0-----0-------0----0-------9-------|


SOLO CHORDS:

e|---0---0------0---0------0---0------0---0---------|
B|---0---0------0---0------0---0------0---0---------|
G|---11--13-----11--13-----9---13-----4---6---------| (2)
D|---14--14-----14--14-----11--14-----6---9---------|
A|---14--14-----14--14-----11--14-----6---9---------|
E|---0---0------0---0------9---0------4---7---------|


SOLO:

e|------------------------------------------------------|
B|--9/17--16^v^v^v\9--999---9/17--16^v^v^v\9---999\-----|
G|------------------------------------------------------|
D|------------------------------------------------------|
A|------------------------------------------------------|
E|------------------------------------------------------|

e|----------------------------------------------------|
B|-55555555--5/7--9\55555555--5/7--9\-----------------|
G|----------------------------------------------------|
D|----------------------------------------------------|
A|----------------------------------------------------|
E|----------------------------------------------------|

e|----------------------------------------------------------------|
B|--9/17--16^v^v^v\12--121212----9/17--16^v^v^v\12---121212\------|
G|----------------------------------------------------------------|
D|----------------------------------------------------------------|
A|----------------------------------------------------------------|
E|----------------------------------------------------------------|

e|----------------------------------------------------|
B|-55555555--5/7--9\55555555--55--3--3----------------|
G|----------------------------------------------------|
D|----------------------------------------------------|
A|----------------------------------------------------|
E|----------------------------------------------------|

FINAL CHORD:

e|--0-----|
B|--0-----|
G|--11----|
D|--14----|
A|--14----|
E|--0-----|
Acordes para:
    Colaboração e revisão:
    • Élison Duarte

    0 comentários

      mostrar mais comentários

      Conseguiu tocar?

      0tocaram0ainda não

      Grave um vídeo tocando Chinese Sleep Chant e mande pra gente!

      00:00 / 00:00
      outros vídeos desta música
      repetirqualidadeautomática
      Outro vídeos desta música
        00:00 / 00:00
        automática
        OK