Cifra Club

Aprenda

Every Teardrop Is A Waterfall

Coldplay

Cifra: Versão 2 (violão e guitarra)
tom: A (forma dos acordes no tom de G) Capotraste na 2ª casa
Batida : ↓   ↑↑↓    ↑↑↓    ↓↑

Intro:
          C9  D7/C       C9     D7/C      D5/B   G/B        D5/B   G/B
E|5--5---4--4--4--|-5--5---4--4--4--|7--7---5--5--5--|-7--7---5--5--5-----|
B|5--5---5--5--5--|-5--5---5--5--5--|5--5---5--5--5--|-5--5---5--5--5-----|
G|2--2---2--2--2--|-2--2---2--2--2--|2--2---2--2--2--|-2--2---2--2--2-----|
D|----------------|-----------------|----------------|--------------------|
A|----------------|-----------------|----------------|--------------------|
E|----------------|-----------------|----------------|--------------------|

Intro: C9 D7/C C9 D7/C D5/B G/B D5/B G/B

            C9   D7/C         C9      D7/9
I turn the music up, i got my records on
            D5/B    G/B            D5/B       G/B
I shut the world outside until the lights come on
              C9   D7/C             C9      D7/C
Maybe the streets alight, maybe the trees are gone
          D5/B        G/B          D5/B       G/B
I feel my heart start beating to my favourite song
            C9
And all the kids they dance, all the kids all night
       G/B
Until monday morning feels another life
           Em7
I turn the music up i'm on a roll this time
    C9
And heaven is in sight

     Solo 4x: C9  G/B   C9   G/B
e|17p12-12----12-12h14p12-----17p12-12-14-12---12-14--|
B|---------14-------------14----------------14--------|
G|----------------------------------------------------|  (4x)
D|----------------------------------------------------|
A|----------------------------------------------------|
E|----------------------------------------------------|

            C9
I turn the music up, i got my records on
       G/B
From underneath the rubble sing a rebel song
               C9
Don't want to see another generation drop
            G/B
I'd rather be a comma than a full stop

           C9
Maybe i'm in the black, maybe i'm on my knees
           G/B
Maybe i'm in the gap between the two trapezes
          Em7
But my heart is beating and my pulses start
C9
Cathedrals in my heart

C9           G/B                 Em7
And we saw oh this light i swear you, emerge blinking into
C9
To tell me it's alright
C9           G/B              Em7
As we soar walls, every siren is a symphony
 C9
And every tear's a waterfall


 C9  G/B   C9   G/B
Is a waterfall
oh
Is a waterfall
Oh oh oh
Is a is a waterfall
Every tear
Is a waterfall
OH OH OH

            D4             Em7
So you can hurt, hurt me bad
             G/B       C9        G/B
But still i'll raaaaaise the flag

Solo: C9  G/B   C9   G/B

 C9  G/B   C9   G/B
Is a waterfall
oh
Is a waterfall
Oh oh oh
Is a is a waterfall

(C9  G/B   C9   G/B)

C9
Every tear, every tear
G/B
Every tear is a waterfall
Composição de Adrienne Anderson / Berryman / Brian Eno / Buckland / Castoni / Lagonda / Peter Allen
Colaboração e revisão:
  • Lucas Carvalho
  • Araripina Pedro
5.190 exibições
    • ½ Tom
    • A
    • Bb
    • B
    • C
    • Db
    • D
    • Eb
    • E
    • F
    • F#
    • G
    • Ab
  • Adicionar à lista

    0 comentários

    Ver todos os comentários

    Conseguiu tocar?

    2 Tocaram 0 Ainda não

    Grave um vídeo tocando Every Teardrop Is A Waterfall e nos envie!

    00:00 / 00:00
    Outros vídeos desta música
    Repetir Qualidade Automático
    Outros vídeos desta música
    00:00 / 00:00
    Automático

    Cifra Club Pro

    Aproveite o Cifra Club com benefícios exclusivos e sem anúncios
    Cifra Club Pro
    Aproveite o Cifra Club com benefícios exclusivos e sem anúncios
    OK