Cifra Club

In My Place

Coldplay

Cifra: Principal
exibições 556.958
Tom: A (com acordes na forma de G) Capotraste na 2ª casa
[Intro] G  G/F#  Bm  D
        G  Em  Bm  D
        G  G/F#  Bm  D
        G Em  Bm  D
 
E|-12-----12-------------9-------9----|
B|-------------------12-----12--------|
G|-----9--------9---------------------| (3x)
D|------------------------------------|
A|------------------------------------|
E|------------------------------------|

E|-12-----12--7/9--7--9--7--9---------|
B|------------------------------------|
G|-----9------------------------------|
D|------------------------------------|
A|------------------------------------|
E|------------------------------------|

E|-12-----12-------------9-------9----|
B|-------------------12-----12--------|
G|-----9--------9---------------------| (3x)
D|------------------------------------|
A|------------------------------------|
E|------------------------------------|

E|-12-----12------------9------9------------|
B|-----------12/14--12-----12------10~~~~---|
G|-----9------------------------------------|
D|------------------------------------------|
A|------------------------------------------|
E|------------------------------------------|

G       G/F#          Bm
In my place, in my place
      D                      G
Were lines that I couldn't change
   Em           Bm   D
I was lost, oh yeah
G      G/F#        Bm
I was lost, I was lost
         D                       G
Crossed lines I shouldn't have crossed
   Em           Bm      D
I was lost, oh yeah

    C/G        G   D              D
E|--x---------x---x-x--x-------|--------------|
B|--7---------5---7/9--10p9----|-----7--9~~~--|
G|--7---------6---7/9--9-------|--9-----------|
D|--7------7--7---7/9--9-------|--------------|  
A|--x--7h9----x---x-x--x-------|--------------|
E|--x---------x---x-x--x-------|--------------|

C/G        G             D       C/G
Yeah, how long must you wait for it?
C/G        G             D      C/G
Yeah, how long must you pay for it?
C/G        G             D       C/G
Yeah, how long must you wait for it?
 D
For it

( G  G/F#  Bm  D )
( G  Em  Bm  D )
( G  G/F#  Bm  D )
( G  Em  Bm  D )

G       G/F#           Bm
I was scared, I was scared
 D                 G
Tired and underprepared
       Em        Bm   D
But I waited for it
    G      G/F#       Bm
If you go, if you go                        
      D                       G
Then leave me down here on my own
  Em            Bm      D
Then I'll wait for you

C/G        G             D       C/G
Yeah, how long must you wait for it?
C/G        G             D      C/G
Yeah, how long must you pay for it?
C/G        G             D       C/G
Yeah, how long must you wait for it?
 D
For it

( G  G/F#  Bm  D )
( G  Em  Bm  D )
( G  G/F#  Bm  D )
( G  Em  Bm  D )

          G      G/F#      Bm
Sing it please, please,  please
      D                G
Come back and sing to me
    Em   Bm
To me, me
     D               G    G/F# Bm
Come on and sing it out, now, now
     D               G       Em  Bm
Come on and sing it out, to me, me
      D
Come back and sing it

G       G/F#         Bm
In my place, in my place
      D                      G
Were lines that I couldn't change
   Em           Bm    D
I was lost, oh yeah
    G
Oh yeah

0 comentários

    mostrar mais comentários

    Conseguiu tocar?

    84tocaram0ainda não

    Grave um vídeo tocando In My Place e mande pra gente!

    00:00 / 00:00
    outros vídeos desta música
    repetirqualidadeautomática
    Outro vídeos desta música
      00:00 / 00:00
      automática
      OK