Cifra Club

The Scientist

Coldplay

Tab de baixo: Principal
exibições 23.549
VERSE:
BAIXO SÓ ENTRA APÓS O PRIMEIRO REFRÃO
"I WAS JUST GUESSING... AT NUMBERS..
"-----

G|-----------------------------------------------------------------|
D|-----------------------------------------------------------------|
A|-5-5-5-5-5-5-5-5-----------------8-8-8-8-8-8-8-8-8-8-8-8-8-8-8-8-|
E|-----------------6-6-6-6-6-6-6-6---------------------------------| 

G|-----------------------------------------------------------------|
D|-----------------------------------------------------------------|
A|-5-5-5-5-5-5-5-5----------------8-8-8-8-8-8-8-8-8-8-8-8-8-8-8-8-|
E|-----------------6-6-6-6-6-6-6-6---------------------------------| 

G|-----------------------------------------------------------------|
D|-----------------------------------------------------------------|
A|-5-5-5-5-5-5-5-5-----------------8-8-8-8-8-8-8-8-8-8-8-8-8-8-8-8-|
E|-----------------6-6-6-6-6-6-6-6---------------------------------| 

G|-----------------------------------------------------------------|
D|-----------------------------------------------------------------|
A|-5-5-5-5-5-5-5-5-----------------8-8-8-8-8-8-8-8-8-8-8-8-7-7-7-7-|
E|-----------------6-6-6-6-6-6-6-6---------------------------------| 


REFRÃO
------
G|-----------------------------------------------------------------|
D|-----------------------------------------------------------------|
A|---------------------------------8-8-8-8-8-8-8-8-8-8-8-8-8-8-8-8-|
E|-6-6-6-6-6-6-6-6-6-6-6-6-6-6-6-6---------------------------------| 

G|---------------------------------------------------------------------------------|
D|---------------------------------------------------------------------------------|
A|---------------------------------8-8-8-8-8-8-8-8-8-8-8-8-8-8-8-8-----------------|
E|-6-6-6-6-6-6-6-6-6-6-6-6-6-6-6-6---------------------------------8-8-8-8-8-8-8-8-| 


INSTRUMENTAL
G|-----------------------------------------------------------------|
D|-----------------------------------------------------------------|
A|-8-8-8-8-8-8-8-8-----------------8-8-8-8-8-8-8-8-8-8-8-8-8-8-8-8-|
E|-----------------6-6-6-6-6-6-6-6---------------------------------| 

G|-----------------------------------------------------------------|
D|-----------------------------------------------------------------|
A|-5-5-5-5-5-5-5-5-----------------8-8-8-8-8-8-8-8-8-8-8-8-8-8-8-8-|
E|-----------------6-6-6-6-6-6-6-6---------------------------------| 

G|-----------------------------------------------------------------|
D|-----------------------------------------------------------------|
A|-5-5-5-5-5-5-5-5-----------------8-8-8-8-8-8-8-8-8-8-8-8-8-8-8-8-|
E|-----------------6-6-6-6-6-6-6-6---------------------------------| 

G|-----------------------------------------------------------------|
D|-----------------------------------------------------------------|
A|-5-5-5-5-5-5-5-5-----------------8-8-8-8-8-8-8-8-8-8-8-8-8-8-8-8-|
E|-----------------6-6-6-6-6-6-6-6---------------------------------| 

G|-----------------------------------------------------------------|
D|-----------------------------------------------------------------|
A|-5-5-5-5-5-5-5-5-----------------8-8-8-8-8-8-8-8-8-8-8-8-8-8-8-8-|
E|-----------------6-6-6-6-6-6-6-6---------------------------------| 


END:
---

G|----------------------------------------------------------------|
D|----------------------------------------------------------------|
A|-5-------------------------------8------------------------------|
E|---------------6------------------------------------------------|




 
 



LYRICS:
------

Come up to meet you, tell you I'm sorry
You don't know how lovely you are

I had to find you
Tell you I need you
Tell you I set you apart

Tell me your secrets
And ask me you questions
Oh let's go back to the start

Running in circles
Coming in tales
Heads are a science apart

Nobody said it was easy
It's such a shame for us to part
Nobody said it was easy
No one ever said it would be this hard

Oh take me back to the start

I was just guessing
At numbers and figures
Pulling your puzzles apart

Questions of science
Science and progress
Do not speak as loud as my heart

Tell me you love me
Come back and haunt me
Oh and I rush to the start

Running in circles
Chasing tails
And coming back as we are

Nobody said it was easy
Oh it's such a shame for us to part
Nobody said it was easy
No one ever said it would be so hard

I'm going back to the start
Composição: Chris Martin / Guy Berryman / Jon Buckland / Will ChampionColaboração e revisão:
  • Arnold
  • Vinicius Chagas

0 comentários

    mostrar mais comentários

    Conseguiu tocar?

    8tocaram0ainda não

    Grave um vídeo tocando The Scientist e mande pra gente!

    00:00 / 00:00
    outros vídeos desta música
    repetirqualidadeautomática
    Outro vídeos desta música
      00:00 / 00:00
      automática
      OK