Notificações Amigos pendentes

      Comunidade de Nilópolis

      Cria em mim

      194.060 exibições
      Tom: C
      Intro 2x: C9 G/C F9  Fm9 
      
      C9                       G/C
      Cria  em  mim  ó  Deus,  cria  em  mim  ó  Deus
                     F9  Fm9
      Um  coração  puro
      C9               G/C
      E  renova,  e  renova
                     F9
      Um  espírito  inabalável
      
      Dm            F/G           C      G/B
      Não retires de nós o teu  espírito
      Dm            F/G           C      G/B
      Não retires de nós o teu  espírito
      Am7                          Em
      Quero  aprender  com  meus  erros
      F                C9      G/B
      E  não  mais  cometê-los
      Am7                           Em
      Sei  que  não  vai  ser  tão  fácil
              F
      Mas,  difícil  é  continuar  no  erro
          Dm7
      E  viver  no  mesmo  desespero
                        G  G7
      E  ficar  para  trás
      C9                 G
      Eu  quero  se...eer
                       Am7
      Eu  quero  se...eer
           F
      Um  homem  segundo
            G              C
      O  coração  de  Deus    (2x)
      
      E|-----------------------------------------------------------------|
      B|-----------------------------------------------------------------|
      G|------12-------12-10-9-10-9----10-9----------12-------12-10-9-10-|
      D|---10-------10---------------10-----10----10-------10------------|
      A|-10------10----------------------------10-------10---------------|
      E|-----------------------------------------------------------------|
      
      
      E|--------------|
      B|--------------|
      G|-9----10-9-17-|
      D|---10---------|
      A|--------------|
      G|--------------|
      
      
      E|----------------------------------------|
      B|-------------------------------------13-|
      G|-------12-------12-10-9-10-9----10-9----|
      D|----10-------10--------------10---------|
      A|-10-------10----------------------------|
      E|----------------------------------------|
      
        Sabe quem é o compositor? Envie pra gente.Colaboração e revisão:
        • Fabricio
        • risperino
        • nak007
        • mario2018
        • +10

        Comentários 1

        140 .
        140 cancelar

        conseguiu tocar?

        covers

        Grave um vídeo tocando Cria em mim e mande pra gente!

        Ex.: http://www.youtube.com/watch?v=0IvSvIwGdwk
        ver covers de outras músicas »
        0:00 / 0:00

        Capítulos

          play/pausefechar subir/descer velocidade
          6ª corda E5ª corda A4ª corda D3ª corda G2ª corda B1ª corda E
            acordes
            publicidade
            fechar
            ok