Cifra Club

Hanginaround

Counting Crows

Cifra: Principal (violão e guitarra)
tom: G
The solo needs work but everything in the solo up to the asterisk is the correct notes

Intro
E|---------------------------------------------------------|
B|---------------------------------------------------------|
G|---------------------------------------------------------|
D|---------------------------------------------------------|
A|---0--3--5h7--5--3--2--3--5----0--3--5h7-5-3h5p3--3h5p3-3|
E|1------3--------------------0-1-----3---------------------| (x2)

F             C           G
She sat right down on the sofa
                        F
And says where have you been
          C                G
I've been waiting for you
     F            C               G
And last night I had something so good
                       F            C           G
These days get so long and I've got nothing to do

                F            C         G
Ive been hanging around this town on a corner
               F                C        G
Ive been bummin around this old town so long
                F            C         G
Ive been hanging around this town on a corner
               F                C            G
Ive been bummin around this old town for way too long

F            C               G
We spent all day getting sober
                    F
Just hiding from daylight
    C            G
And watching tv       (...fading away)
F               C                G
We just look a lot better in the blue light
                      F
Well you know I gotta get out
    C
But Im stuck so tight
G
Weighed by the chains that keep me

                F            C         G
       , hanging around this town on a corner
               F                C        G
I've been bummin around this old town so long
                F            C         G
I've been hanging around this town on a corner
               F                C            G
I've been bummin around this old town for way too long

Solo
E|-------------------------------------------------------------------------|
B|-------------------------------------------------------------------------|
G|-------------------------------------------------------------------------|
D|-------------------------------------------------------------------------|
A|---0--3---5h7--5--3--2--3--2----0--3---5h7---5p3h5---5---5p3h5--5---7h10-|
E|1------3---------------------1------3------------------------------------|

E|------------------------------------------------------------------------|
B|------------------------------------------------------------------------|
G|------------------------------------------------------------------------|
D|------------------------------------------------------------------------|
A|---0--3---5-7--5p3h5--7-7--7-7-7h9-10-10/15-15-15-13--15-15-15-13-12-15-|
E|1------3----------------------------------------------------------------|
                            *
F            C               G
This girl listens to band plays

She says where have you been
F                 C                G
Been laying right here on the floor
F           C             G
I got all this time to be waiting for what is mine
      F              C             G
To be hated for what I am after the light has faded

                F            C         G
Ive been hanging around this town on a corner
               F                C        G
Ive been bummin around this old town so long
                F            C         G
Ive been hanging around this town on a corner
               F                C            G
Ive been bummin around this old town for way too long, hey

                F            C         G
Ive been hanging around this town on a corner
               F                C            G
Ive been bummin around this old town for way too long
                F            C         G
Ive been hanging around this town on a corner
                F                C            G                   F        C
I've been bummin around this old town for way, way, way, way, too long

G                          F              C
   way, way, way, way, too long
G                          F              C
   way, way, way, way, too long
G                          F              C
   way, way, way, way, too long
G                          F              C
   way, way, way, way, too long
G                          F              C
   way, way, way, way, too long
G                          F              C
   way, way, way, way, too long

/ = Slide
h = hammer on
p = pull off
00:00 / 00:00
Outros vídeos desta música
Repetir
Outros vídeos desta música
Composição de Ben Mize / David Bryson
Colaboração e revisão:
  • Vitor Prado
1.467 exibições
    • ½ Tom
    • A
    • Bb
    • B
    • C
    • Db
    • D
    • Eb
    • E
    • F
    • F#
    • G
    • Ab
  • Adicionar à lista

    0 comentários

    Ver todos os comentários

    Entre para oCifra Club PRO

    Tenha acesso a benefícios exclusivos no App e no Site

    • Chega de anúncios

    • Prioridade de compra em lançamentos

    • Mais recursos no app do Afinador

    • Atendimento Prioritário

    • Descontos nos produtos Cifra Club

    • Ajude a produzir mais conteúdo

    00:00 / 00:00

    Cifra Club Pro

    Aproveite o Cifra Club com benefícios exclusivos e sem anúncios
    Cifra Club Pro
    Aproveite o Cifra Club com benefícios exclusivos e sem anúncios
    OK